  0
SECTION
  2
HEADER
  9
$ACADVER
  1
AC1009
  9
$INSBASE
 10
0.0
 20
0.0
 30
0.0
  9
$EXTMIN
 10
3521302.7284302348
 20
5399323.4788080407
 30
-0.0015258207003583
  9
$EXTMAX
 10
3524937.291748188
 20
5402467.6603135848
 30
0.0000000349246037
  9
$LIMMIN
 10
3465385.7410000009
 20
5399328.0489999987
  9
$LIMMAX
 10
3524785.9270000001
 20
5407423.0039999988
  9
$ORTHOMODE
 70
     0
  9
$REGENMODE
 70
     1
  9
$FILLMODE
 70
     1
  9
$QTEXTMODE
 70
     0
  9
$MIRRTEXT
 70
     0
  9
$DRAGMODE
 70
     2
  9
$LTSCALE
 40
1.0
  9
$OSMODE
 70
    37
  9
$ATTMODE
 70
     1
  9
$TEXTSIZE
 40
10.0
  9
$TRACEWID
 40
0.05
  9
$TEXTSTYLE
  7
STANDARD
  9
$CLAYER
  8
0
  9
$CELTYPE
  6
CONTINUOUS
  9
$CECOLOR
 62
   256
  9
$DIMSCALE
 40
1.0
  9
$DIMASZ
 40
0.18
  9
$DIMEXO
 40
0.0625
  9
$DIMDLI
 40
0.38
  9
$DIMRND
 40
0.0
  9
$DIMDLE
 40
0.0
  9
$DIMEXE
 40
0.18
  9
$DIMTP
 40
0.0
  9
$DIMTM
 40
0.0
  9
$DIMTXT
 40
0.18
  9
$DIMCEN
 40
0.09
  9
$DIMTSZ
 40
0.0
  9
$DIMTOL
 70
     0
  9
$DIMLIM
 70
     0
  9
$DIMTIH
 70
     1
  9
$DIMTOH
 70
     1
  9
$DIMSE1
 70
     0
  9
$DIMSE2
 70
     0
  9
$DIMTAD
 70
     0
  9
$DIMZIN
 70
     0
  9
$DIMBLK
  1

  9
$DIMASO
 70
     1
  9
$DIMSHO
 70
     1
  9
$DIMPOST
  1

  9
$DIMAPOST
  1

  9
$DIMALT
 70
     0
  9
$DIMALTD
 70
     2
  9
$DIMALTF
 40
25.399999999999999
  9
$DIMLFAC
 40
1.0
  9
$DIMTOFL
 70
     0
  9
$DIMTVP
 40
0.0
  9
$DIMTIX
 70
     0
  9
$DIMSOXD
 70
     0
  9
$DIMSAH
 70
     0
  9
$DIMBLK1
  1

  9
$DIMBLK2
  1

  9
$DIMSTYLE
  2
STANDARD
  9
$DIMCLRD
 70
     0
  9
$DIMCLRE
 70
     0
  9
$DIMCLRT
 70
     0
  9
$DIMTFAC
 40
1.0
  9
$DIMGAP
 40
0.09
  9
$LUNITS
 70
     2
  9
$LUPREC
 70
     4
  9
$SKETCHINC
 40
0.1
  9
$FILLETRAD
 40
0.0
  9
$AUNITS
 70
     0
  9
$AUPREC
 70
     0
  9
$MENU
  1
.
  9
$ELEVATION
 40
0.0
  9
$PELEVATION
 40
0.0
  9
$THICKNESS
 40
0.0
  9
$LIMCHECK
 70
     0
  9
$BLIPMODE
 70
     0
  9
$CHAMFERA
 40
0.0
  9
$CHAMFERB
 40
0.0
  9
$SKPOLY
 70
     0
  9
$TDCREATE
 40
2457247.419852755
  9
$TDUPDATE
 40
2457247.4209898501
  9
$TDINDWG
 40
0.0011714931
  9
$TDUSRTIMER
 40
0.0011714931
  9
$USRTIMER
 70
     1
  9
$ANGBASE
 50
0.0
  9
$ANGDIR
 70
     0
  9
$PDMODE
 70
     0
  9
$PDSIZE
 40
0.0
  9
$PLINEWID
 40
0.0
  9
$COORDS
 70
     1
  9
$SPLFRAME
 70
     0
  9
$SPLINETYPE
 70
     6
  9
$SPLINESEGS
 70
     8
  9
$ATTDIA
 70
     0
  9
$ATTREQ
 70
     1
  9
$HANDLING
 70
     1
  9
$HANDSEED
  5
F99
  9
$SURFTAB1
 70
     6
  9
$SURFTAB2
 70
     6
  9
$SURFTYPE
 70
     6
  9
$SURFU
 70
     6
  9
$SURFV
 70
     6
  9
$UCSNAME
  2

  9
$UCSORG
 10
0.0
 20
0.0
 30
0.0
  9
$UCSXDIR
 10
1.0
 20
0.0
 30
0.0
  9
$UCSYDIR
 10
0.0
 20
1.0
 30
0.0
  9
$PUCSNAME
  2

  9
$PUCSORG
 10
0.0
 20
0.0
 30
0.0
  9
$PUCSXDIR
 10
1.0
 20
0.0
 30
0.0
  9
$PUCSYDIR
 10
0.0
 20
1.0
 30
0.0
  9
$USERI1
 70
     0
  9
$USERI2
 70
     0
  9
$USERI3
 70
     0
  9
$USERI4
 70
     0
  9
$USERI5
 70
     0
  9
$USERR1
 40
0.0
  9
$USERR2
 40
0.0
  9
$USERR3
 40
0.0
  9
$USERR4
 40
0.0
  9
$USERR5
 40
0.0
  9
$WORLDVIEW
 70
     1
  9
$SHADEDGE
 70
     3
  9
$SHADEDIF
 70
    70
  9
$TILEMODE
 70
     1
  9
$MAXACTVP
 70
    64
  9
$PLIMCHECK
 70
     0
  9
$PEXTMIN
 10
1.0000000000000000E+020
 20
1.0000000000000000E+020
 30
1.0000000000000000E+020
  9
$PEXTMAX
 10
-1.0000000000000000E+020
 20
-1.0000000000000000E+020
 30
-1.0000000000000000E+020
  9
$PLIMMIN
 10
0.0
 20
0.0
  9
$PLIMMAX
 10
12.0
 20
9.0
  9
$UNITMODE
 70
     0
  9
$VISRETAIN
 70
     1
  9
$PLINEGEN
 70
     0
  9
$PSLTSCALE
 70
     1
  0
ENDSEC
  0
SECTION
  2
TABLES
  0
TABLE
  2
VPORT
 70
     1
  0
VPORT
  2
*ACTIVE
 70
     0
 10
0.0
 20
0.0
 11
1.0
 21
1.0
 12
3522153.490886067
 22
5400295.7250707652
 13
0.0
 23
0.0
 14
1.0
 24
1.0
 15
0.0
 25
0.0
 16
0.0
 26
0.0
 36
1.0
 17
0.0
 27
0.0
 37
0.0
 40
5099.2890802264983
 41
1.383668903803132
 42
50.0
 43
0.0
 44
0.0
 50
0.0
 51
0.0
 71
     0
 72
  1000
 73
     1
 74
     3
 75
     0
 76
     0
 77
     0
 78
     0
  0
ENDTAB
  0
TABLE
  2
LTYPE
 70
     7
  0
LTYPE
  2
CONTINUOUS
 70
     0
  3
Solid line
 72
    65
 73
     0
 40
0.0
  0
LTYPE
  2
_SOLID
 70
     0
  3

 72
    65
 73
     2
 40
5.0
 49
5.0
 49
0.0
  0
LTYPE
  2
_DASH
 70
     0
  3

 72
    65
 73
     2
 40
7.0
 49
5.0
 49
-2.0
  0
LTYPE
  2
_DOT
 70
     0
  3

 72
    65
 73
     2
 40
4.0
 49
2.0
 49
-2.0
  0
LTYPE
  2
_DASHDOT
 70
     0
  3

 72
    65
 73
     4
 40
11.0
 49
5.0
 49
-2.0
 49
2.0
 49
-2.0
  0
LTYPE
  2
_DASHDOTDOT
 70
     0
  3

 72
    65
 73
     6
 40
15.0
 49
5.0
 49
-2.0
 49
2.0
 49
-2.0
 49
2.0
 49
-2.0
  0
LTYPE
  2
ACADISO06W100
 70
     0
  3

 72
    65
 73
     8
 40
36.0
 49
24.0
 49
-3.0
 49
0.0
 49
-3.0
 49
0.0
 49
-3.0
 49
0.0
 49
-3.0
  0
ENDTAB
  0
TABLE
  2
LAYER
 70
    22
  0
LAYER
  2
0
 70
     0
 62
     7
  6
CONTINUOUS
  0
LAYER
  2
01_PACHT
 70
     0
 62
     7
  6
CONTINUOUS
  0
LAYER
  2
01_VER-GEWERBE
 70
     0
 62
     7
  6
CONTINUOUS
  0
LAYER
  2
01_VER-SCHULE
 70
     0
 62
     7
  6
CONTINUOUS
  0
LAYER
  2
01_VER-BAHN
 70
     0
 62
     7
  6
CONTINUOUS
  0
LAYER
  2
01_TEXT
 70
     0
 62
     7
  6
CONTINUOUS
  0
LAYER
  2
01_0
 70
     0
 62
     7
  6
CONTINUOUS
  0
LAYER
  2
01_SCHACHT
 70
     0
 62
     7
  6
CONTINUOUS
  0
LAYER
  2
01_KVZ
 70
     0
 62
     7
  6
CONTINUOUS
  0
LAYER
  2
01_HILFSLINIE
 70
     0
 62
     7
  6
CONTINUOUS
  0
LAYER
  2
01_BESTAND
 70
     0
 62
     7
  6
CONTINUOUS
  0
LAYER
  2
01_GR-ANDEREBAUMA
 70
     0
 62
     7
  6
CONTINUOUS
  0
LAYER
  2
01_KR-ANDEREBAUMA
 70
     0
 62
     7
  6
CONTINUOUS
  0
LAYER
  2
01_VER-SCHWGEO
 70
     0
 62
     7
  6
CONTINUOUS
  0
LAYER
  2
01_GR-BEST_KR
 70
     0
 62
     7
  6
CONTINUOUS
  0
LAYER
  2
01_GR-MICRO
 70
     0
 62
     7
  6
CONTINUOUS
  0
LAYER
  2
01_GR-ABWASSERKANAL
 70
     0
 62
     7
  6
CONTINUOUS
  0
LAYER
  2
01_KR-ABWASSERKANAL
 70
     0
 62
     7
  6
CONTINUOUS
  0
LAYER
  2
01_GR-UNVERS
 70
     0
 62
     7
  6
CONTINUOUS
  0
LAYER
  2
01_GR-VERS
 70
     0
 62
     7
  6
CONTINUOUS
  0
LAYER
  2
01_KR-UNVERS
 70
     0
 62
     7
  6
CONTINUOUS
  0
LAYER
  2
01_KR-VERS
 70
     0
 62
     7
  6
CONTINUOUS
  0
ENDTAB
  0
TABLE
  2
STYLE
 70
     1
  0
STYLE
  2
STANDARD
 70
     0
 40
0.0
 41
1.0
 50
0.0
 71
     0
 42
10.0
  3
txt
  4

  0
ENDTAB
  0
TABLE
  2
VIEW
 70
     0
  0
ENDTAB
  0
TABLE
  2
UCS
 70
     0
  0
ENDTAB
  0
TABLE
  2
APPID
 70
    18
  0
APPID
  2
ACAD
 70
     0
  0
APPID
  2
ACAD_NAV_VCDISPLAY
 70
     0
  0
APPID
  2
ACAD_EXEMPT_FROM_CAD_STANDARDS
 70
     0
  0
APPID
  2
ADE_PROJECTION
 70
     0
  0
APPID
  2
AECCLAND100
 70
     0
  0
APPID
  2
AECCUIQTO
 70
     0
  0
APPID
  2
AECCUIQTOENTITYPAYITEMDATA
 70
     0
  0
APPID
  2
AECCUIQTOPAYITEMFILEPATH
 70
     0
  0
APPID
  2
AECCUIQTOPAYITEMCATEGORYFI
 70
     0
  0
APPID
  2
AECCUIQTOFREQUSEDPAYITEMSLIST
 70
     0
  0
APPID
  2
AECCUIQTOPAYITEMFORMULAFILEPATH
 70
     0
  0
APPID
  2
AECCUIQTOPAYITEMSPECBOOKVE
 70
     0
  0
APPID
  2
AECCUIQTOPAYITEMFORMULAPAR
 70
     0
  0
APPID
  2
AECCUIQTOPAYITEMFORMULAEXP
 70
     0
  0
APPID
  2
AECCUIQTOTRANSPORTDESIGNER
 70
     0
  0
APPID
  2
AECCUIMGR
 70
     0
  0
APPID
  2
AECCUIMODEL
 70
     0
  0
APPID
  2
ACAD_MLEADERVER
 70
     0
  0
ENDTAB
  0
TABLE
  2
DIMSTYLE
 70
     2
  0
DIMSTYLE
  2
STANDARD
 70
     0
  3

  4

  5

  6

  7

 40
1.0
 41
0.18
 42
0.0625
 43
0.38
 44
0.18
 45
0.0
 46
0.0
 47
0.0
 48
0.0
140
0.18
141
0.09
142
0.0
143
25.399999999999999
144
1.0
145
0.0
146
1.0
147
0.09
 71
     0
 72
     0
 73
     1
 74
     1
 75
     0
 76
     0
 77
     0
 78
     0
170
     0
171
     2
172
     0
173
     0
174
     0
175
     0
176
     0
177
     0
178
     0
  0
ENDTAB
  0
ENDSEC
  0
SECTION
  2
BLOCKS
  0
BLOCK
  8
0
  2
$MODEL_SPACE
 70
     0
 10
0.0
 20
0.0
 30
0.0
  3
$MODEL_SPACE
  1

  0
ENDBLK
  5
10
  8
0
  0
BLOCK
 67
     1
  8
0
  2
$PAPER_SPACE
 70
     0
 10
0.0
 20
0.0
 30
0.0
  3
$PAPER_SPACE
  1

  0
ENDBLK
  5
12
 67
     1
  8
0
  0
BLOCK
  8
01_TEXT
  2
01_SCHACHT
 70
     0
 10
0.0
 20
0.0
 30
0.0
  3
01_SCHACHT
  1

  0
POLYLINE
  5
28
  8
01_0
 62
     7
 10
0.0
 20
0.5
 30
0.0
 66
     1
 70
     8
  0
VERTEX
  8
01_0
  5
E95
 10
0.000000
 20
0.500000
 30
0.000000
  70
    32
  0
VERTEX
  8
01_0
  5
E96
 10
-0.0245338
 20
0.499398
 30
0.000000
  70
    32
  0
VERTEX
  8
01_0
  5
E97
 10
-0.0490086
 20
0.497592
 30
0.000000
  70
    32
  0
VERTEX
  8
01_0
  5
E98
 10
-0.0733652
 20
0.494588
 30
0.000000
  70
    32
  0
VERTEX
  8
01_0
  5
E99
 10
-0.0975452
 20
0.490393
 30
0.000000
  70
    32
  0
VERTEX
  8
01_0
  5
E9A
 10
-0.121490
 20
0.485016
 30
0.000000
  70
    32
  0
VERTEX
  8
01_0
  5
E9B
 10
-0.145142
 20
0.478470
 30
0.000000
  70
    32
  0
VERTEX
  8
01_0
  5
E9C
 10
-0.168445
 20
0.470772
 30
0.000000
  70
    32
  0
VERTEX
  8
01_0
  5
E9D
 10
-0.191342
 20
0.461940
 30
0.000000
  70
    32
  0
VERTEX
  8
01_0
  5
E9E
 10
-0.213778
 20
0.451995
 30
0.000000
  70
    32
  0
VERTEX
  8
01_0
  5
E9F
 10
-0.235698
 20
0.440961
 30
0.000000
  70
    32
  0
VERTEX
  8
01_0
  5
EA0
 10
-0.257051
 20
0.428864
 30
0.000000
  70
    32
  0
VERTEX
  8
01_0
  5
EA1
 10
-0.277785
 20
0.415735
 30
0.000000
  70
    32
  0
VERTEX
  8
01_0
  5
EA2
 10
-0.297850
 20
0.401604
 30
0.000000
  70
    32
  0
VERTEX
  8
01_0
  5
EA3
 10
-0.317197
 20
0.386505
 30
0.000000
  70
    32
  0
VERTEX
  8
01_0
  5
EA4
 10
-0.335779
 20
0.370476
 30
0.000000
  70
    32
  0
VERTEX
  8
01_0
  5
EA5
 10
-0.353553
 20
0.353553
 30
0.000000
  70
    32
  0
VERTEX
  8
01_0
  5
EA6
 10
-0.370476
 20
0.335779
 30
0.000000
  70
    32
  0
VERTEX
  8
01_0
  5
EA7
 10
-0.386505
 20
0.317197
 30
0.000000
  70
    32
  0
VERTEX
  8
01_0
  5
EA8
 10
-0.401604
 20
0.297850
 30
0.000000
  70
    32
  0
VERTEX
  8
01_0
  5
EA9
 10
-0.415735
 20
0.277785
 30
0.000000
  70
    32
  0
VERTEX
  8
01_0
  5
EAA
 10
-0.428864
 20
0.257051
 30
0.000000
  70
    32
  0
VERTEX
  8
01_0
  5
EAB
 10
-0.440961
 20
0.235698
 30
0.000000
  70
    32
  0
VERTEX
  8
01_0
  5
EAC
 10
-0.451995
 20
0.213778
 30
0.000000
  70
    32
  0
VERTEX
  8
01_0
  5
EAD
 10
-0.461940
 20
0.191342
 30
0.000000
  70
    32
  0
VERTEX
  8
01_0
  5
EAE
 10
-0.470772
 20
0.168445
 30
0.000000
  70
    32
  0
VERTEX
  8
01_0
  5
EAF
 10
-0.478470
 20
0.145142
 30
0.000000
  70
    32
  0
VERTEX
  8
01_0
  5
EB0
 10
-0.485016
 20
0.121490
 30
0.000000
  70
    32
  0
VERTEX
  8
01_0
  5
EB1
 10
-0.490393
 20
0.0975452
 30
0.000000
  70
    32
  0
VERTEX
  8
01_0
  5
EB2
 10
-0.494588
 20
0.0733652
 30
0.000000
  70
    32
  0
VERTEX
  8
01_0
  5
EB3
 10
-0.497592
 20
0.0490086
 30
0.000000
  70
    32
  0
VERTEX
  8
01_0
  5
EB4
 10
-0.499398
 20
0.0245338
 30
0.000000
  70
    32
  0
VERTEX
  8
01_0
  5
EB5
 10
-0.500000
 20
3.06162e-017
 30
0.000000
  70
    32
  0
VERTEX
  8
01_0
  5
EB6
 10
-0.499398
 20
-0.0245338
 30
0.000000
  70
    32
  0
VERTEX
  8
01_0
  5
EB7
 10
-0.497592
 20
-0.0490086
 30
0.000000
  70
    32
  0
VERTEX
  8
01_0
  5
EB8
 10
-0.494588
 20
-0.0733652
 30
0.000000
  70
    32
  0
VERTEX
  8
01_0
  5
EB9
 10
-0.490393
 20
-0.0975452
 30
0.000000
  70
    32
  0
VERTEX
  8
01_0
  5
EBA
 10
-0.485016
 20
-0.121490
 30
0.000000
  70
    32
  0
VERTEX
  8
01_0
  5
EBB
 10
-0.478470
 20
-0.145142
 30
0.000000
  70
    32
  0
VERTEX
  8
01_0
  5
EBC
 10
-0.470772
 20
-0.168445
 30
0.000000
  70
    32
  0
VERTEX
  8
01_0
  5
EBD
 10
-0.461940
 20
-0.191342
 30
0.000000
  70
    32
  0
VERTEX
  8
01_0
  5
EBE
 10
-0.451995
 20
-0.213778
 30
0.000000
  70
    32
  0
VERTEX
  8
01_0
  5
EBF
 10
-0.440961
 20
-0.235698
 30
0.000000
  70
    32
  0
VERTEX
  8
01_0
  5
EC0
 10
-0.428864
 20
-0.257051
 30
0.000000
  70
    32
  0
VERTEX
  8
01_0
  5
EC1
 10
-0.415735
 20
-0.277785
 30
0.000000
  70
    32
  0
VERTEX
  8
01_0
  5
EC2
 10
-0.401604
 20
-0.297850
 30
0.000000
  70
    32
  0
VERTEX
  8
01_0
  5
EC3
 10
-0.386505
 20
-0.317197
 30
0.000000
  70
    32
  0
VERTEX
  8
01_0
  5
EC4
 10
-0.370476
 20
-0.335779
 30
0.000000
  70
    32
  0
VERTEX
  8
01_0
  5
EC5
 10
-0.353553
 20
-0.353553
 30
0.000000
  70
    32
  0
VERTEX
  8
01_0
  5
EC6
 10
-0.335779
 20
-0.370476
 30
0.000000
  70
    32
  0
VERTEX
  8
01_0
  5
EC7
 10
-0.317197
 20
-0.386505
 30
0.000000
  70
    32
  0
VERTEX
  8
01_0
  5
EC8
 10
-0.297850
 20
-0.401604
 30
0.000000
  70
    32
  0
VERTEX
  8
01_0
  5
EC9
 10
-0.277785
 20
-0.415735
 30
0.000000
  70
    32
  0
VERTEX
  8
01_0
  5
ECA
 10
-0.257051
 20
-0.428864
 30
0.000000
  70
    32
  0
VERTEX
  8
01_0
  5
ECB
 10
-0.235698
 20
-0.440961
 30
0.000000
  70
    32
  0
VERTEX
  8
01_0
  5
ECC
 10
-0.213778
 20
-0.451995
 30
0.000000
  70
    32
  0
VERTEX
  8
01_0
  5
ECD
 10
-0.191342
 20
-0.461940
 30
0.000000
  70
    32
  0
VERTEX
  8
01_0
  5
ECE
 10
-0.168445
 20
-0.470772
 30
0.000000
  70
    32
  0
VERTEX
  8
01_0
  5
ECF
 10
-0.145142
 20
-0.478470
 30
0.000000
  70
    32
  0
VERTEX
  8
01_0
  5
ED0
 10
-0.121490
 20
-0.485016
 30
0.000000
  70
    32
  0
VERTEX
  8
01_0
  5
ED1
 10
-0.0975452
 20
-0.490393
 30
0.000000
  70
    32
  0
VERTEX
  8
01_0
  5
ED2
 10
-0.0733652
 20
-0.494588
 30
0.000000
  70
    32
  0
VERTEX
  8
01_0
  5
ED3
 10
-0.0490086
 20
-0.497592
 30
0.000000
  70
    32
  0
VERTEX
  8
01_0
  5
ED4
 10
-0.0245338
 20
-0.499398
 30
0.000000
  70
    32
  0
VERTEX
  8
01_0
  5
ED5
 10
-6.12323e-017
 20
-0.500000
 30
0.000000
  70
    32
  0
VERTEX
  8
01_0
  5
ED6
 10
0.0245338
 20
-0.499398
 30
0.000000
  70
    32
  0
VERTEX
  8
01_0
  5
ED7
 10
0.0490086
 20
-0.497592
 30
0.000000
  70
    32
  0
VERTEX
  8
01_0
  5
ED8
 10
0.0733652
 20
-0.494588
 30
0.000000
  70
    32
  0
VERTEX
  8
01_0
  5
ED9
 10
0.0975452
 20
-0.490393
 30
0.000000
  70
    32
  0
VERTEX
  8
01_0
  5
EDA
 10
0.121490
 20
-0.485016
 30
0.000000
  70
    32
  0
VERTEX
  8
01_0
  5
EDB
 10
0.145142
 20
-0.478470
 30
0.000000
  70
    32
  0
VERTEX
  8
01_0
  5
EDC
 10
0.168445
 20
-0.470772
 30
0.000000
  70
    32
  0
VERTEX
  8
01_0
  5
EDD
 10
0.191342
 20
-0.461940
 30
0.000000
  70
    32
  0
VERTEX
  8
01_0
  5
EDE
 10
0.213778
 20
-0.451995
 30
0.000000
  70
    32
  0
VERTEX
  8
01_0
  5
EDF
 10
0.235698
 20
-0.440961
 30
0.000000
  70
    32
  0
VERTEX
  8
01_0
  5
EE0
 10
0.257051
 20
-0.428864
 30
0.000000
  70
    32
  0
VERTEX
  8
01_0
  5
EE1
 10
0.277785
 20
-0.415735
 30
0.000000
  70
    32
  0
VERTEX
  8
01_0
  5
EE2
 10
0.297850
 20
-0.401604
 30
0.000000
  70
    32
  0
VERTEX
  8
01_0
  5
EE3
 10
0.317197
 20
-0.386505
 30
0.000000
  70
    32
  0
VERTEX
  8
01_0
  5
EE4
 10
0.335779
 20
-0.370476
 30
0.000000
  70
    32
  0
VERTEX
  8
01_0
  5
EE5
 10
0.353553
 20
-0.353553
 30
0.000000
  70
    32
  0
VERTEX
  8
01_0
  5
EE6
 10
0.370476
 20
-0.335779
 30
0.000000
  70
    32
  0
VERTEX
  8
01_0
  5
EE7
 10
0.386505
 20
-0.317197
 30
0.000000
  70
    32
  0
VERTEX
  8
01_0
  5
EE8
 10
0.401604
 20
-0.297850
 30
0.000000
  70
    32
  0
VERTEX
  8
01_0
  5
EE9
 10
0.415735
 20
-0.277785
 30
0.000000
  70
    32
  0
VERTEX
  8
01_0
  5
EEA
 10
0.428864
 20
-0.257051
 30
0.000000
  70
    32
  0
VERTEX
  8
01_0
  5
EEB
 10
0.440961
 20
-0.235698
 30
0.000000
  70
    32
  0
VERTEX
  8
01_0
  5
EEC
 10
0.451995
 20
-0.213778
 30
0.000000
  70
    32
  0
VERTEX
  8
01_0
  5
EED
 10
0.461940
 20
-0.191342
 30
0.000000
  70
    32
  0
VERTEX
  8
01_0
  5
EEE
 10
0.470772
 20
-0.168445
 30
0.000000
  70
    32
  0
VERTEX
  8
01_0
  5
EEF
 10
0.478470
 20
-0.145142
 30
0.000000
  70
    32
  0
VERTEX
  8
01_0
  5
EF0
 10
0.485016
 20
-0.121490
 30
0.000000
  70
    32
  0
VERTEX
  8
01_0
  5
EF1
 10
0.490393
 20
-0.0975452
 30
0.000000
  70
    32
  0
VERTEX
  8
01_0
  5
EF2
 10
0.494588
 20
-0.0733652
 30
0.000000
  70
    32
  0
VERTEX
  8
01_0
  5
EF3
 10
0.497592
 20
-0.0490086
 30
0.000000
  70
    32
  0
VERTEX
  8
01_0
  5
EF4
 10
0.499398
 20
-0.0245338
 30
0.000000
  70
    32
  0
VERTEX
  8
01_0
  5
EF5
 10
0.500000
 20
-9.18485e-017
 30
0.000000
  70
    32
  0
VERTEX
  8
01_0
  5
EF6
 10
0.499398
 20
0.0245338
 30
0.000000
  70
    32
  0
VERTEX
  8
01_0
  5
EF7
 10
0.497592
 20
0.0490086
 30
0.000000
  70
    32
  0
VERTEX
  8
01_0
  5
EF8
 10
0.494588
 20
0.0733652
 30
0.000000
  70
    32
  0
VERTEX
  8
01_0
  5
EF9
 10
0.490393
 20
0.0975452
 30
0.000000
  70
    32
  0
VERTEX
  8
01_0
  5
EFA
 10
0.485016
 20
0.121490
 30
0.000000
  70
    32
  0
VERTEX
  8
01_0
  5
EFB
 10
0.478470
 20
0.145142
 30
0.000000
  70
    32
  0
VERTEX
  8
01_0
  5
EFC
 10
0.470772
 20
0.168445
 30
0.000000
  70
    32
  0
VERTEX
  8
01_0
  5
EFD
 10
0.461940
 20
0.191342
 30
0.000000
  70
    32
  0
VERTEX
  8
01_0
  5
EFE
 10
0.451995
 20
0.213778
 30
0.000000
  70
    32
  0
VERTEX
  8
01_0
  5
EFF
 10
0.440961
 20
0.235698
 30
0.000000
  70
    32
  0
VERTEX
  8
01_0
  5
F00
 10
0.428864
 20
0.257051
 30
0.000000
  70
    32
  0
VERTEX
  8
01_0
  5
F01
 10
0.415735
 20
0.277785
 30
0.000000
  70
    32
  0
VERTEX
  8
01_0
  5
F02
 10
0.401604
 20
0.297850
 30
0.000000
  70
    32
  0
VERTEX
  8
01_0
  5
F03
 10
0.386505
 20
0.317197
 30
0.000000
  70
    32
  0
VERTEX
  8
01_0
  5
F04
 10
0.370476
 20
0.335779
 30
0.000000
  70
    32
  0
VERTEX
  8
01_0
  5
F05
 10
0.353553
 20
0.353553
 30
0.000000
  70
    32
  0
VERTEX
  8
01_0
  5
F06
 10
0.335779
 20
0.370476
 30
0.000000
  70
    32
  0
VERTEX
  8
01_0
  5
F07
 10
0.317197
 20
0.386505
 30
0.000000
  70
    32
  0
VERTEX
  8
01_0
  5
F08
 10
0.297850
 20
0.401604
 30
0.000000
  70
    32
  0
VERTEX
  8
01_0
  5
F09
 10
0.277785
 20
0.415735
 30
0.000000
  70
    32
  0
VERTEX
  8
01_0
  5
F0A
 10
0.257051
 20
0.428864
 30
0.000000
  70
    32
  0
VERTEX
  8
01_0
  5
F0B
 10
0.235698
 20
0.440961
 30
0.000000
  70
    32
  0
VERTEX
  8
01_0
  5
F0C
 10
0.213778
 20
0.451995
 30
0.000000
  70
    32
  0
VERTEX
  8
01_0
  5
F0D
 10
0.191342
 20
0.461940
 30
0.000000
  70
    32
  0
VERTEX
  8
01_0
  5
F0E
 10
0.168445
 20
0.470772
 30
0.000000
  70
    32
  0
VERTEX
  8
01_0
  5
F0F
 10
0.145142
 20
0.478470
 30
0.000000
  70
    32
  0
VERTEX
  8
01_0
  5
F10
 10
0.121490
 20
0.485016
 30
0.000000
  70
    32
  0
VERTEX
  8
01_0
  5
F11
 10
0.0975452
 20
0.490393
 30
0.000000
  70
    32
  0
VERTEX
  8
01_0
  5
F12
 10
0.0733652
 20
0.494588
 30
0.000000
  70
    32
  0
VERTEX
  8
01_0
  5
F13
 10
0.0490086
 20
0.497592
 30
0.000000
  70
    32
  0
VERTEX
  8
01_0
  5
F14
 10
0.0245338
 20
0.499398
 30
0.000000
  70
    32
  0
VERTEX
  8
01_0
  5
F15
 10
0.000000
 20
0.500000
 30
0.000000
  70
    32
  0
SEQEND
  8
01_0
  5
F16
  0
ENDBLK
  5
79
  8
01_KR-VERS
  0
BLOCK
  8
01_SCHACHT
  2
01_KVZ
 70
     0
 10
0.0
 20
0.0
 30
0.0
  3
01_KVZ
  1

  0
POLYLINE
  5
2E
  8
01_0
 62
     7
 10
0.0
 20
0.5
 30
0.0
 66
     1
 70
     8
  0
VERTEX
  8
01_0
  5
F17
 10
0.000000
 20
0.500000
 30
0.000000
  70
    32
  0
VERTEX
  8
01_0
  5
F18
 10
-0.0245338
 20
0.499398
 30
0.000000
  70
    32
  0
VERTEX
  8
01_0
  5
F19
 10
-0.0490086
 20
0.497592
 30
0.000000
  70
    32
  0
VERTEX
  8
01_0
  5
F1A
 10
-0.0733652
 20
0.494588
 30
0.000000
  70
    32
  0
VERTEX
  8
01_0
  5
F1B
 10
-0.0975452
 20
0.490393
 30
0.000000
  70
    32
  0
VERTEX
  8
01_0
  5
F1C
 10
-0.121490
 20
0.485016
 30
0.000000
  70
    32
  0
VERTEX
  8
01_0
  5
F1D
 10
-0.145142
 20
0.478470
 30
0.000000
  70
    32
  0
VERTEX
  8
01_0
  5
F1E
 10
-0.168445
 20
0.470772
 30
0.000000
  70
    32
  0
VERTEX
  8
01_0
  5
F1F
 10
-0.191342
 20
0.461940
 30
0.000000
  70
    32
  0
VERTEX
  8
01_0
  5
F20
 10
-0.213778
 20
0.451995
 30
0.000000
  70
    32
  0
VERTEX
  8
01_0
  5
F21
 10
-0.235698
 20
0.440961
 30
0.000000
  70
    32
  0
VERTEX
  8
01_0
  5
F22
 10
-0.257051
 20
0.428864
 30
0.000000
  70
    32
  0
VERTEX
  8
01_0
  5
F23
 10
-0.277785
 20
0.415735
 30
0.000000
  70
    32
  0
VERTEX
  8
01_0
  5
F24
 10
-0.297850
 20
0.401604
 30
0.000000
  70
    32
  0
VERTEX
  8
01_0
  5
F25
 10
-0.317197
 20
0.386505
 30
0.000000
  70
    32
  0
VERTEX
  8
01_0
  5
F26
 10
-0.335779
 20
0.370476
 30
0.000000
  70
    32
  0
VERTEX
  8
01_0
  5
F27
 10
-0.353553
 20
0.353553
 30
0.000000
  70
    32
  0
VERTEX
  8
01_0
  5
F28
 10
-0.370476
 20
0.335779
 30
0.000000
  70
    32
  0
VERTEX
  8
01_0
  5
F29
 10
-0.386505
 20
0.317197
 30
0.000000
  70
    32
  0
VERTEX
  8
01_0
  5
F2A
 10
-0.401604
 20
0.297850
 30
0.000000
  70
    32
  0
VERTEX
  8
01_0
  5
F2B
 10
-0.415735
 20
0.277785
 30
0.000000
  70
    32
  0
VERTEX
  8
01_0
  5
F2C
 10
-0.428864
 20
0.257051
 30
0.000000
  70
    32
  0
VERTEX
  8
01_0
  5
F2D
 10
-0.440961
 20
0.235698
 30
0.000000
  70
    32
  0
VERTEX
  8
01_0
  5
F2E
 10
-0.451995
 20
0.213778
 30
0.000000
  70
    32
  0
VERTEX
  8
01_0
  5
F2F
 10
-0.461940
 20
0.191342
 30
0.000000
  70
    32
  0
VERTEX
  8
01_0
  5
F30
 10
-0.470772
 20
0.168445
 30
0.000000
  70
    32
  0
VERTEX
  8
01_0
  5
F31
 10
-0.478470
 20
0.145142
 30
0.000000
  70
    32
  0
VERTEX
  8
01_0
  5
F32
 10
-0.485016
 20
0.121490
 30
0.000000
  70
    32
  0
VERTEX
  8
01_0
  5
F33
 10
-0.490393
 20
0.0975452
 30
0.000000
  70
    32
  0
VERTEX
  8
01_0
  5
F34
 10
-0.494588
 20
0.0733652
 30
0.000000
  70
    32
  0
VERTEX
  8
01_0
  5
F35
 10
-0.497592
 20
0.0490086
 30
0.000000
  70
    32
  0
VERTEX
  8
01_0
  5
F36
 10
-0.499398
 20
0.0245338
 30
0.000000
  70
    32
  0
VERTEX
  8
01_0
  5
F37
 10
-0.500000
 20
3.06162e-017
 30
0.000000
  70
    32
  0
VERTEX
  8
01_0
  5
F38
 10
-0.499398
 20
-0.0245338
 30
0.000000
  70
    32
  0
VERTEX
  8
01_0
  5
F39
 10
-0.497592
 20
-0.0490086
 30
0.000000
  70
    32
  0
VERTEX
  8
01_0
  5
F3A
 10
-0.494588
 20
-0.0733652
 30
0.000000
  70
    32
  0
VERTEX
  8
01_0
  5
F3B
 10
-0.490393
 20
-0.0975452
 30
0.000000
  70
    32
  0
VERTEX
  8
01_0
  5
F3C
 10
-0.485016
 20
-0.121490
 30
0.000000
  70
    32
  0
VERTEX
  8
01_0
  5
F3D
 10
-0.478470
 20
-0.145142
 30
0.000000
  70
    32
  0
VERTEX
  8
01_0
  5
F3E
 10
-0.470772
 20
-0.168445
 30
0.000000
  70
    32
  0
VERTEX
  8
01_0
  5
F3F
 10
-0.461940
 20
-0.191342
 30
0.000000
  70
    32
  0
VERTEX
  8
01_0
  5
F40
 10
-0.451995
 20
-0.213778
 30
0.000000
  70
    32
  0
VERTEX
  8
01_0
  5
F41
 10
-0.440961
 20
-0.235698
 30
0.000000
  70
    32
  0
VERTEX
  8
01_0
  5
F42
 10
-0.428864
 20
-0.257051
 30
0.000000
  70
    32
  0
VERTEX
  8
01_0
  5
F43
 10
-0.415735
 20
-0.277785
 30
0.000000
  70
    32
  0
VERTEX
  8
01_0
  5
F44
 10
-0.401604
 20
-0.297850
 30
0.000000
  70
    32
  0
VERTEX
  8
01_0
  5
F45
 10
-0.386505
 20
-0.317197
 30
0.000000
  70
    32
  0
VERTEX
  8
01_0
  5
F46
 10
-0.370476
 20
-0.335779
 30
0.000000
  70
    32
  0
VERTEX
  8
01_0
  5
F47
 10
-0.353553
 20
-0.353553
 30
0.000000
  70
    32
  0
VERTEX
  8
01_0
  5
F48
 10
-0.335779
 20
-0.370476
 30
0.000000
  70
    32
  0
VERTEX
  8
01_0
  5
F49
 10
-0.317197
 20
-0.386505
 30
0.000000
  70
    32
  0
VERTEX
  8
01_0
  5
F4A
 10
-0.297850
 20
-0.401604
 30
0.000000
  70
    32
  0
VERTEX
  8
01_0
  5
F4B
 10
-0.277785
 20
-0.415735
 30
0.000000
  70
    32
  0
VERTEX
  8
01_0
  5
F4C
 10
-0.257051
 20
-0.428864
 30
0.000000
  70
    32
  0
VERTEX
  8
01_0
  5
F4D
 10
-0.235698
 20
-0.440961
 30
0.000000
  70
    32
  0
VERTEX
  8
01_0
  5
F4E
 10
-0.213778
 20
-0.451995
 30
0.000000
  70
    32
  0
VERTEX
  8
01_0
  5
F4F
 10
-0.191342
 20
-0.461940
 30
0.000000
  70
    32
  0
VERTEX
  8
01_0
  5
F50
 10
-0.168445
 20
-0.470772
 30
0.000000
  70
    32
  0
VERTEX
  8
01_0
  5
F51
 10
-0.145142
 20
-0.478470
 30
0.000000
  70
    32
  0
VERTEX
  8
01_0
  5
F52
 10
-0.121490
 20
-0.485016
 30
0.000000
  70
    32
  0
VERTEX
  8
01_0
  5
F53
 10
-0.0975452
 20
-0.490393
 30
0.000000
  70
    32
  0
VERTEX
  8
01_0
  5
F54
 10
-0.0733652
 20
-0.494588
 30
0.000000
  70
    32
  0
VERTEX
  8
01_0
  5
F55
 10
-0.0490086
 20
-0.497592
 30
0.000000
  70
    32
  0
VERTEX
  8
01_0
  5
F56
 10
-0.0245338
 20
-0.499398
 30
0.000000
  70
    32
  0
VERTEX
  8
01_0
  5
F57
 10
-6.12323e-017
 20
-0.500000
 30
0.000000
  70
    32
  0
VERTEX
  8
01_0
  5
F58
 10
0.0245338
 20
-0.499398
 30
0.000000
  70
    32
  0
VERTEX
  8
01_0
  5
F59
 10
0.0490086
 20
-0.497592
 30
0.000000
  70
    32
  0
VERTEX
  8
01_0
  5
F5A
 10
0.0733652
 20
-0.494588
 30
0.000000
  70
    32
  0
VERTEX
  8
01_0
  5
F5B
 10
0.0975452
 20
-0.490393
 30
0.000000
  70
    32
  0
VERTEX
  8
01_0
  5
F5C
 10
0.121490
 20
-0.485016
 30
0.000000
  70
    32
  0
VERTEX
  8
01_0
  5
F5D
 10
0.145142
 20
-0.478470
 30
0.000000
  70
    32
  0
VERTEX
  8
01_0
  5
F5E
 10
0.168445
 20
-0.470772
 30
0.000000
  70
    32
  0
VERTEX
  8
01_0
  5
F5F
 10
0.191342
 20
-0.461940
 30
0.000000
  70
    32
  0
VERTEX
  8
01_0
  5
F60
 10
0.213778
 20
-0.451995
 30
0.000000
  70
    32
  0
VERTEX
  8
01_0
  5
F61
 10
0.235698
 20
-0.440961
 30
0.000000
  70
    32
  0
VERTEX
  8
01_0
  5
F62
 10
0.257051
 20
-0.428864
 30
0.000000
  70
    32
  0
VERTEX
  8
01_0
  5
F63
 10
0.277785
 20
-0.415735
 30
0.000000
  70
    32
  0
VERTEX
  8
01_0
  5
F64
 10
0.297850
 20
-0.401604
 30
0.000000
  70
    32
  0
VERTEX
  8
01_0
  5
F65
 10
0.317197
 20
-0.386505
 30
0.000000
  70
    32
  0
VERTEX
  8
01_0
  5
F66
 10
0.335779
 20
-0.370476
 30
0.000000
  70
    32
  0
VERTEX
  8
01_0
  5
F67
 10
0.353553
 20
-0.353553
 30
0.000000
  70
    32
  0
VERTEX
  8
01_0
  5
F68
 10
0.370476
 20
-0.335779
 30
0.000000
  70
    32
  0
VERTEX
  8
01_0
  5
F69
 10
0.386505
 20
-0.317197
 30
0.000000
  70
    32
  0
VERTEX
  8
01_0
  5
F6A
 10
0.401604
 20
-0.297850
 30
0.000000
  70
    32
  0
VERTEX
  8
01_0
  5
F6B
 10
0.415735
 20
-0.277785
 30
0.000000
  70
    32
  0
VERTEX
  8
01_0
  5
F6C
 10
0.428864
 20
-0.257051
 30
0.000000
  70
    32
  0
VERTEX
  8
01_0
  5
F6D
 10
0.440961
 20
-0.235698
 30
0.000000
  70
    32
  0
VERTEX
  8
01_0
  5
F6E
 10
0.451995
 20
-0.213778
 30
0.000000
  70
    32
  0
VERTEX
  8
01_0
  5
F6F
 10
0.461940
 20
-0.191342
 30
0.000000
  70
    32
  0
VERTEX
  8
01_0
  5
F70
 10
0.470772
 20
-0.168445
 30
0.000000
  70
    32
  0
VERTEX
  8
01_0
  5
F71
 10
0.478470
 20
-0.145142
 30
0.000000
  70
    32
  0
VERTEX
  8
01_0
  5
F72
 10
0.485016
 20
-0.121490
 30
0.000000
  70
    32
  0
VERTEX
  8
01_0
  5
F73
 10
0.490393
 20
-0.0975452
 30
0.000000
  70
    32
  0
VERTEX
  8
01_0
  5
F74
 10
0.494588
 20
-0.0733652
 30
0.000000
  70
    32
  0
VERTEX
  8
01_0
  5
F75
 10
0.497592
 20
-0.0490086
 30
0.000000
  70
    32
  0
VERTEX
  8
01_0
  5
F76
 10
0.499398
 20
-0.0245338
 30
0.000000
  70
    32
  0
VERTEX
  8
01_0
  5
F77
 10
0.500000
 20
-9.18485e-017
 30
0.000000
  70
    32
  0
VERTEX
  8
01_0
  5
F78
 10
0.499398
 20
0.0245338
 30
0.000000
  70
    32
  0
VERTEX
  8
01_0
  5
F79
 10
0.497592
 20
0.0490086
 30
0.000000
  70
    32
  0
VERTEX
  8
01_0
  5
F7A
 10
0.494588
 20
0.0733652
 30
0.000000
  70
    32
  0
VERTEX
  8
01_0
  5
F7B
 10
0.490393
 20
0.0975452
 30
0.000000
  70
    32
  0
VERTEX
  8
01_0
  5
F7C
 10
0.485016
 20
0.121490
 30
0.000000
  70
    32
  0
VERTEX
  8
01_0
  5
F7D
 10
0.478470
 20
0.145142
 30
0.000000
  70
    32
  0
VERTEX
  8
01_0
  5
F7E
 10
0.470772
 20
0.168445
 30
0.000000
  70
    32
  0
VERTEX
  8
01_0
  5
F7F
 10
0.461940
 20
0.191342
 30
0.000000
  70
    32
  0
VERTEX
  8
01_0
  5
F80
 10
0.451995
 20
0.213778
 30
0.000000
  70
    32
  0
VERTEX
  8
01_0
  5
F81
 10
0.440961
 20
0.235698
 30
0.000000
  70
    32
  0
VERTEX
  8
01_0
  5
F82
 10
0.428864
 20
0.257051
 30
0.000000
  70
    32
  0
VERTEX
  8
01_0
  5
F83
 10
0.415735
 20
0.277785
 30
0.000000
  70
    32
  0
VERTEX
  8
01_0
  5
F84
 10
0.401604
 20
0.297850
 30
0.000000
  70
    32
  0
VERTEX
  8
01_0
  5
F85
 10
0.386505
 20
0.317197
 30
0.000000
  70
    32
  0
VERTEX
  8
01_0
  5
F86
 10
0.370476
 20
0.335779
 30
0.000000
  70
    32
  0
VERTEX
  8
01_0
  5
F87
 10
0.353553
 20
0.353553
 30
0.000000
  70
    32
  0
VERTEX
  8
01_0
  5
F88
 10
0.335779
 20
0.370476
 30
0.000000
  70
    32
  0
VERTEX
  8
01_0
  5
F89
 10
0.317197
 20
0.386505
 30
0.000000
  70
    32
  0
VERTEX
  8
01_0
  5
F8A
 10
0.297850
 20
0.401604
 30
0.000000
  70
    32
  0
VERTEX
  8
01_0
  5
F8B
 10
0.277785
 20
0.415735
 30
0.000000
  70
    32
  0
VERTEX
  8
01_0
  5
F8C
 10
0.257051
 20
0.428864
 30
0.000000
  70
    32
  0
VERTEX
  8
01_0
  5
F8D
 10
0.235698
 20
0.440961
 30
0.000000
  70
    32
  0
VERTEX
  8
01_0
  5
F8E
 10
0.213778
 20
0.451995
 30
0.000000
  70
    32
  0
VERTEX
  8
01_0
  5
F8F
 10
0.191342
 20
0.461940
 30
0.000000
  70
    32
  0
VERTEX
  8
01_0
  5
F90
 10
0.168445
 20
0.470772
 30
0.000000
  70
    32
  0
VERTEX
  8
01_0
  5
F91
 10
0.145142
 20
0.478470
 30
0.000000
  70
    32
  0
VERTEX
  8
01_0
  5
F92
 10
0.121490
 20
0.485016
 30
0.000000
  70
    32
  0
VERTEX
  8
01_0
  5
F93
 10
0.0975452
 20
0.490393
 30
0.000000
  70
    32
  0
VERTEX
  8
01_0
  5
F94
 10
0.0733652
 20
0.494588
 30
0.000000
  70
    32
  0
VERTEX
  8
01_0
  5
F95
 10
0.0490086
 20
0.497592
 30
0.000000
  70
    32
  0
VERTEX
  8
01_0
  5
F96
 10
0.0245338
 20
0.499398
 30
0.000000
  70
    32
  0
VERTEX
  8
01_0
  5
F97
 10
0.000000
 20
0.500000
 30
0.000000
  70
    32
  0
SEQEND
  8
01_0
  5
F98
  0
ENDBLK
  5
7A
  8
01_KR-VERS
  0
BLOCK
  8
0
  2
*U2
 70
     1
 10
0.0
 20
0.0
 30
0.0
  3
*U2
  1

  0
POLYLINE
  5
341
  8
0
 62
    10
 66
     1
 10
0.0
 20
0.0
 30
-1.5
  0
VERTEX
  5
B80
  8
0
 62
    10
 10
-1.5
 20
-1.5
 30
-1.5
  0
VERTEX
  5
B81
  8
0
 62
    10
 10
-1.5
 20
1.5
 30
-1.5
  0
VERTEX
  5
B82
  8
0
 62
    10
 10
1.5
 20
1.5
 30
-1.5
  0
VERTEX
  5
B83
  8
0
 62
    10
 10
1.5
 20
-1.5
 30
-1.5
  0
VERTEX
  5
B84
  8
0
 62
    10
 10
-1.5
 20
-1.5
 30
-1.5
  0
SEQEND
  5
B85
  8
0
 62
    10
  0
POLYLINE
  5
342
  8
0
 62
     4
 66
     1
 10
0.0
 20
0.0
 30
-1.5
  0
VERTEX
  5
B86
  8
0
 62
     4
 10
-1.5
 20
1.5
 30
-1.5
  0
VERTEX
  5
B87
  8
0
 62
     4
 10
-1.5
 20
-1.5
 30
-1.5
  0
VERTEX
  5
B88
  8
0
 62
     4
 10
1.5
 20
-1.5
 30
-1.5
  0
VERTEX
  5
B89
  8
0
 62
     4
 10
1.5
 20
1.5
 30
-1.5
  0
VERTEX
  5
B8A
  8
0
 62
     4
 10
-1.5
 20
1.5
 30
-1.5
  0
SEQEND
  5
B8B
  8
0
 62
     4
  0
INSERT
  5
343
  8
0
  6
CONTINUOUS
 62
   133
  2
*U4
 10
0.0
 20
0.0
 30
0.0
1001
ACAD
1002
{
1000
R14_HATCH_DATA
1000
343
1011
1.0
1021
0.0
1031
0.0
1021
0.0
1031
0.0
1011
0.0
1021
0.0
1031
0.0
1021
1.0
1031
0.0
1011
0.0
1021
0.0
1031
0.0
1021
0.0
1031
1.0
1040
0.0
1010
0.0
1020
0.0
1030
1.0
1000
SOLID
1070
     1
1070
     0
1071
        2
1071
        1
1071
        3
1070
     1
1040
0.0
1040
0.0
1040
7.7500053640320274
1040
-0.1999901374336161
1070
     1
1040
7.7500053640320274
1040
-0.1999901374336161
1040
7.7500053640320274
1040
0.1999901374335877
1070
     1
1040
7.7500053640320274
1040
0.1999901374336161
1040
0.0
1040
0.0
1071
        0
1071
       33
1071
        2
1070
     1
1040
7.7500053640320274
1040
5.0000188823323981
1040
7.7500053640320274
1040
-4.9999810757581136
1070
     1
1040
7.7500053640320274
1040
0.0
1040
18.5
1040
0.0
1071
        0
1070
     0
1070
     1
1071
        1
1040
0.0
1040
0.0
1040
0.0
1002
}
  0
LINE
  5
344
  8
0
 62
   250
 39
0.0002
 10
0.0
 20
0.0
 30
0.0
 11
7.7500053640320274
 21
0.1999901374336161
 31
0.0
  0
LINE
  5
345
  8
0
 62
   250
 39
0.0002
 10
0.0
 20
0.0
 30
0.0
 11
7.7500053640320274
 21
-0.1999901374336161
 31
0.0
  0
INSERT
  5
346
  8
0
  6
CONTINUOUS
 62
     4
  2
*U5
 10
0.0
 20
0.0
 30
0.0
1001
ACAD
1002
{
1000
R14_HATCH_DATA
1000
346
1011
1.0
1021
0.0
1031
0.0
1021
0.0
1031
0.0
1011
0.0
1021
0.0
1031
0.0
1021
1.0
1031
0.0
1011
0.0
1021
0.0
1031
0.0
1021
0.0
1031
1.0
1040
0.0
1010
0.0
1020
0.0
1030
1.0
1000
SOLID
1070
     1
1070
     0
1071
        1
1071
        1
1071
        4
1070
     1
1040
-1.5
1040
-1.5
1040
-1.5
1040
1.5
1070
     1
1040
-1.5
1040
1.5
1040
1.5
1040
1.5
1070
     1
1040
1.5
1040
1.5
1040
1.5
1040
-1.5
1070
     1
1040
1.5
1040
-1.5
1040
-1.5
1040
-1.5
1071
        0
1070
     0
1070
     1
1071
        1
1040
0.0
1040
0.0
1040
0.0
1002
}
  0
INSERT
  5
347
  8
0
  6
CONTINUOUS
 62
    12
  2
*U6
 10
0.0
 20
0.0
 30
0.0
1001
ACAD
1002
{
1000
R14_HATCH_DATA
1000
347
1011
1.0
1021
0.0
1031
0.0
1021
0.0
1031
0.0
1011
0.0
1021
0.0
1031
0.0
1021
1.0
1031
0.0
1011
0.0
1021
0.0
1031
0.0
1021
0.0
1031
1.0
1040
0.0
1010
0.0
1020
0.0
1030
1.0
1000
SOLID
1070
     1
1070
     0
1071
        1
1071
        1
1071
        6
1070
     1
1040
11.204505025152359
1040
0.0
1040
11.204505025152359
1040
-3.4002521523742351
1070
     1
1040
11.204505025152359
1040
-3.4002521523742351
1040
17.000038288258029
1040
-3.4002521523742351
1070
     1
1040
17.000038288258029
1040
-3.4002521523742351
1040
17.000038288258029
1040
-4.999970053555443
1070
     1
1040
17.000038288258029
1040
-4.999970053555443
1040
18.5
1040
-4.9999810967128431
1070
     1
1040
18.5
1040
-4.9999810967128431
1040
18.5
1040
0.0
1070
     1
1040
18.5
1040
0.0
1040
11.204505025152359
1040
0.0
1071
        0
1070
     0
1070
     1
1071
        1
1040
0.0
1040
0.0
1040
0.0
1002
}
  0
INSERT
  5
348
  8
0
  6
CONTINUOUS
 62
    10
  2
*U7
 10
0.0
 20
0.0
 30
0.0
1001
ACAD
1002
{
1000
R14_HATCH_DATA
1000
348
1011
1.0
1021
0.0
1031
0.0
1021
0.0
1031
0.0
1011
0.0
1021
0.0
1031
0.0
1021
1.0
1031
0.0
1011
0.0
1021
0.0
1031
0.0
1021
0.0
1031
1.0
1040
0.0
1010
0.0
1020
0.0
1030
1.0
1000
SOLID
1070
     1
1070
     0
1071
        1
1071
        1
1071
        6
1070
     1
1040
11.204505025152359
1040
3.4002521523742351
1040
11.204505025152359
1040
0.0
1070
     1
1040
11.204505025152359
1040
0.0
1040
18.5
1040
0.0
1070
     1
1040
18.5
1040
0.0
1040
18.5
1040
5.000018903287156
1070
     1
1040
18.5
1040
5.000018903287156
1040
17.000028595028159
1040
5.000018903287156
1070
     1
1040
17.000028595028159
1040
5.000018903287156
1040
17.000028595028159
1040
3.4002521523742639
1070
     1
1040
17.000028595028159
1040
3.4002521523742351
1040
11.204505025152359
1040
3.4002521523742351
1071
        0
1070
     0
1070
     1
1071
        1
1040
0.0
1040
0.0
1040
0.0
1002
}
  0
LINE
  5
349
  8
0
 62
   250
 10
7.7500053640320274
 20
5.0000188823323981
 30
0.0
 11
7.7500053640320274
 21
-4.999981075758142
 31
0.0
  0
INSERT
  5
34A
  8
0
  6
CONTINUOUS
 62
    14
  2
*U8
 10
0.0
 20
0.0
 30
0.0
1001
ACAD
1002
{
1000
R14_HATCH_DATA
1000
34A
1011
1.0
1021
0.0
1031
0.0
1021
0.0
1031
0.0
1011
0.0
1021
0.0
1031
0.0
1021
1.0
1031
0.0
1011
0.0
1021
0.0
1031
0.0
1021
0.0
1031
1.0
1040
0.0
1010
0.0
1020
0.0
1030
1.0
1000
SOLID
1070
     1
1070
     0
1071
        1
1071
        1
1071
        4
1070
     1
1040
7.7500053640320274
1040
0.0
1040
11.204505025152359
1040
0.0
1070
     1
1040
11.204505025152359
1040
0.0
1040
11.204505025152359
1040
-3.4002521523742351
1070
     1
1040
11.204505025152359
1040
-3.4002521523742351
1040
7.7500053640320274
1040
-5.0000188823323688
1070
     1
1040
7.7500053640320274
1040
-5.0000188823323981
1040
7.7500053640320274
1040
0.0
1071
        0
1070
     0
1070
     1
1071
        1
1040
0.0
1040
0.0
1040
0.0
1002
}
  0
INSERT
  5
34B
  8
0
  6
CONTINUOUS
 62
    22
  2
*U9
 10
0.0
 20
0.0
 30
0.0
1001
ACAD
1002
{
1000
R14_HATCH_DATA
1000
34B
1011
1.0
1021
0.0
1031
0.0
1021
0.0
1031
0.0
1011
0.0
1021
0.0
1031
0.0
1021
1.0
1031
0.0
1011
0.0
1021
0.0
1031
0.0
1021
0.0
1031
1.0
1040
0.0
1010
0.0
1020
0.0
1030
1.0
1000
SOLID
1070
     1
1070
     0
1071
        1
1071
        1
1071
        4
1070
     1
1040
7.7500053640320274
1040
0.0
1040
7.7500053640320274
1040
5.0000188823323981
1070
     1
1040
7.7500053640320274
1040
5.0000188823323981
1040
11.204505025152359
1040
3.4002521523742639
1070
     1
1040
11.204505025152359
1040
3.4002521523742351
1040
11.204505025152359
1040
0.0
1070
     1
1040
11.204505025152359
1040
0.0
1040
7.7500053640320274
1040
0.0
1071
        0
1070
     0
1070
     1
1071
        1
1040
0.0
1040
0.0
1040
0.0
1002
}
  0
ENDBLK
  5
340
  8
0
  0
BLOCK
  8
0
  2
*U3
 70
     1
 10
0.0
 20
0.0
 30
0.0
  3
*U3
  1

  0
LINE
  5
34F
  8
0
 62
   250
 39
0.01
 10
0.0
 20
0.0
 30
0.0
 11
4.0862944419833829
 21
3.6706951206524958
 31
0.0
  0
INSERT
  5
350
  8
0
  6
CONTINUOUS
 62
    14
  2
*U10
 10
0.0
 20
0.0
 30
0.0
1001
ACAD
1002
{
1000
R14_HATCH_DATA
1000
350
1011
1.0
1021
0.0
1031
0.0
1021
0.0
1031
0.0
1011
0.0
1021
0.0
1031
0.0
1021
1.0
1031
0.0
1011
0.0
1021
0.0
1031
0.0
1021
0.0
1031
1.0
1040
0.0
1010
0.0
1020
0.0
1030
1.0
1000
SOLID
1070
     1
1070
     0
1071
        1
1071
        1
1071
        3
1070
     3
1040
12.732493259273721
1040
12.73249325927371
1040
-3.509466030885604
1040
3.5094660308856032
1040
0.9207951268990203
1040
3.8941565331446721
1040
4.7123889803846897
1070
     0
1070
     1
1040
9.5009940400166073
1040
9.5009940400166073
1040
8.8222356798165649
1040
8.8222356798165578
1070
     3
1040
11.18357669303253
1040
11.220576884095181
1040
-2.387441463007915
1040
2.9368829533683818
1040
0.888109948108941
1040
1.6691094881484221
1040
2.9682647159841928
1070
     1
1071
        0
1070
     0
1070
     1
1071
        1
1040
0.0
1040
0.0
1040
0.0
1002
}
  0
INSERT
  5
351
  8
0
  6
CONTINUOUS
 62
    12
  2
*U11
 10
0.0
 20
0.0
 30
0.0
1001
ACAD
1002
{
1000
R14_HATCH_DATA
1000
351
1011
1.0
1021
0.0
1031
0.0
1021
0.0
1031
0.0
1011
0.0
1021
0.0
1031
0.0
1021
1.0
1031
0.0
1011
0.0
1021
0.0
1031
0.0
1021
0.0
1031
1.0
1040
0.0
1010
0.0
1020
0.0
1030
1.0
1000
SOLID
1070
     1
1070
     0
1071
        1
1071
        1
1071
        3
1070
     3
1040
6.752665742288996
1040
6.752665742288996
1040
3.5331082466684052
1040
-3.533108246668399
1040
0.8156215388739337
1040
5.5591787388102061
1040
7.8539816339744828
1070
     0
1070
     1
1040
3.8709865571331288
1040
3.8709865571331359
1040
6.218177794586345
1040
6.218177794586353
1070
     3
1040
8.661465634085161
1040
8.6614656340851752
1040
-2.6468557151169478
1040
2.6468557151169478
1040
0.9230906790817908
1040
1.570796326794897
1040
3.1415926535898029
1070
     1
1071
        0
1070
     0
1070
     1
1071
        1
1040
0.0
1040
0.0
1040
0.0
1002
}
  0
INSERT
  5
352
  8
0
  6
CONTINUOUS
 62
    14
  2
*U12
 10
0.0
 20
0.0
 30
0.0
1001
ACAD
1002
{
1000
R14_HATCH_DATA
1000
352
1011
1.0
1021
0.0
1031
0.0
1021
0.0
1031
0.0
1011
0.0
1021
0.0
1031
0.0
1021
1.0
1031
0.0
1011
0.0
1021
0.0
1031
0.0
1021
0.0
1031
1.0
1040
0.0
1010
0.0
1020
0.0
1030
1.0
1000
SOLID
1070
     1
1070
     0
1071
        1
1071
        1
1071
        4
1070
     1
1040
6.218177794586345
1040
6.2181777945863379
1040
8.8222356798165649
1040
8.8222356798165578
1070
     3
1040
11.18357669303253
1040
11.220576884095181
1040
-2.387441463007915
1040
2.9368829533683818
1040
0.888109948108941
1040
1.6691094881484221
1040
2.9682647159841928
1070
     1
1070
     1
1040
13.085418729976791
1040
7.9620276993582593
1040
11.30832134920211
1040
6.0146099189682181
1070
     3
1040
8.661465634085161
1040
8.6614656340851752
1040
-2.6468557151169478
1040
2.6468557151169478
1040
0.9230906790817908
1040
3.141592653589782
1040
4.7123889803846879
1070
     0
1071
        0
1070
     0
1070
     1
1071
        1
1040
0.0
1040
0.0
1040
0.0
1002
}
  0
INSERT
  5
353
  8
0
  6
CONTINUOUS
 62
    16
  2
*U13
 10
0.0
 20
0.0
 30
0.0
1001
ACAD
1002
{
1000
R14_HATCH_DATA
1000
353
1011
1.0
1021
0.0
1031
0.0
1021
0.0
1031
0.0
1011
0.0
1021
0.0
1031
0.0
1021
1.0
1031
0.0
1011
0.0
1021
0.0
1031
0.0
1021
0.0
1031
1.0
1040
0.0
1010
0.0
1020
0.0
1030
1.0
1000
SOLID
1070
     1
1070
     0
1071
        1
1071
        1
1071
        3
1070
     3
1040
13.08147545195113
1040
13.081475451951119
1040
3.5355339059327329
1040
-3.5355339059327391
1040
0.8143478515666137
1040
0.0
1040
1.5707963267948959
1070
     0
1070
     1
1040
10.20232101151389
1040
10.20232101151389
1040
9.5009940400166073
1040
9.5009940400166073
1070
     3
1040
12.732493259273699
1040
12.732493259273721
1040
-3.7694970525931439
1040
3.3228208538427091
1040
0.9091538774903961
1040
1.5136000097920581
1040
3.1806267759860058
1070
     1
1071
        0
1070
     0
1070
     1
1071
        1
1040
0.0
1040
0.0
1040
0.0
1002
}
  0
INSERT
  5
354
  8
0
  6
CONTINUOUS
 62
     1
  2
*U14
 10
0.0
 20
0.0
 30
0.0
1001
ACAD
1002
{
1000
R14_HATCH_DATA
1000
354
1011
1.0
1021
0.0
1031
0.0
1021
0.0
1031
0.0
1011
0.0
1021
0.0
1031
0.0
1021
1.0
1031
0.0
1011
0.0
1021
0.0
1031
0.0
1021
0.0
1031
1.0
1040
0.0
1010
0.0
1020
0.0
1030
1.0
1000
SOLID
1070
     1
1070
     0
1071
        1
1071
        1
1071
        1
1070
     3
1040
13.08147545195113
1040
13.081475451951119
1040
-3.5355339059327351
1040
3.5355339059327369
1040
0.814347851566614
1040
0.0
1040
6.2831853071795862
1070
     1
1071
        0
1070
     0
1070
     1
1071
        1
1040
0.0
1040
0.0
1040
0.0
1002
}
  0
INSERT
  5
355
  8
0
  6
CONTINUOUS
 62
     4
  2
*U15
 10
0.0
 20
0.0
 30
0.0
1001
ACAD
1002
{
1000
R14_HATCH_DATA
1000
355
1011
1.0
1021
0.0
1031
0.0
1021
0.0
1031
0.0
1011
0.0
1021
0.0
1031
0.0
1021
1.0
1031
0.0
1011
0.0
1021
0.0
1031
0.0
1021
0.0
1031
1.0
1040
-1.0
1010
0.0
1020
0.0
1030
1.0
1000
SOLID
1070
     1
1070
     0
1071
        1
1071
        1
1071
        4
1070
     1
1040
-1.5
1040
-1.5
1040
1.5
1040
-1.5
1070
     1
1040
1.5
1040
-1.5
1040
1.5
1040
1.5
1070
     1
1040
1.5
1040
1.5
1040
-1.5
1040
1.5
1070
     1
1040
-1.5
1040
1.5
1040
-1.5
1040
-1.5
1071
        0
1070
     0
1070
     1
1071
        1
1040
0.0
1040
0.0
1040
-1.0
1002
}
  0
INSERT
  5
356
  8
0
  6
CONTINUOUS
 62
   142
  2
*U16
 10
0.0
 20
0.0
 30
0.0
1001
ACAD
1002
{
1000
R14_HATCH_DATA
1000
356
1011
1.0
1021
0.0
1031
0.0
1021
0.0
1031
0.0
1011
0.0
1021
0.0
1031
0.0
1021
1.0
1031
0.0
1011
0.0
1021
0.0
1031
0.0
1021
0.0
1031
1.0
1040
0.0
1010
0.0
1020
0.0
1030
1.0
1000
SOLID
1070
     1
1070
     0
1071
        1
1071
        1
1071
        3
1070
     1
1040
0.0
1040
0.0
1040
3.6682976931065729
1040
4.0836255755877877
1070
     1
1040
3.6682976931065729
1040
4.0836255755877877
1040
4.0862944419833829
1040
3.6706951206524958
1070
     1
1040
4.0862944419833829
1040
3.6706951206524958
1040
0.0
1040
0.0
1071
        0
1070
     0
1070
     1
1071
        1
1040
0.0
1040
0.0
1040
0.0
1002
}
  0
LINE
  5
357
  8
0
 62
   250
 10
0.0
 20
0.0
 30
0.0
 11
3.6682976931065729
 21
4.0836255755877877
 31
0.0
  0
POLYLINE
  5
358
  8
0
 62
   250
 66
     1
 10
0.0
 20
0.0
 30
0.0
  0
VERTEX
  5
D7B
  8
0
 62
   250
 10
-1.5
 20
-1.5
 30
0.0
  0
VERTEX
  5
D7C
  8
0
 62
   250
 10
1.5
 20
-1.5
 30
0.0
  0
VERTEX
  5
D7D
  8
0
 62
   250
 10
1.5
 20
1.5
 30
0.0
  0
VERTEX
  5
D7E
  8
0
 62
   250
 10
-1.5
 20
1.5
 30
0.0
  0
VERTEX
  5
D7F
  8
0
 62
   250
 10
-1.5
 20
-1.5
 30
0.0
  0
SEQEND
  5
D80
  8
0
 62
   250
  0
INSERT
  5
359
  8
0
  6
CONTINUOUS
 62
    14
  2
*U17
 10
0.0
 20
0.0
 30
0.0
1001
ACAD
1002
{
1000
R14_HATCH_DATA
1000
359
1011
1.0
1021
0.0
1031
0.0
1021
0.0
1031
0.0
1011
0.0
1021
0.0
1031
0.0
1021
1.0
1031
0.0
1011
0.0
1021
0.0
1031
0.0
1021
0.0
1031
1.0
1040
0.0
1010
0.0
1020
0.0
1030
1.0
1000
SOLID
1070
     1
1070
     0
1071
        1
1071
        1
1071
        3
1070
     3
1040
13.08147545195113
1040
13.081475451951119
1040
-3.5355339059327351
1040
3.5355339059327382
1040
0.8143478515666135
1040
0.0
1040
1.5707963267948959
1070
     1
1070
     1
1040
10.20232101151389
1040
10.20232101151389
1040
9.5009940400166073
1040
9.5009940400166073
1070
     3
1040
12.732493259273721
1040
12.73249325927371
1040
-3.3228208538427548
1040
3.7694970525930822
1040
0.9091538774903996
1040
4.6551926633818619
1040
6.3222194295758181
1070
     0
1071
        0
1070
     0
1070
     1
1071
        1
1040
0.0
1040
0.0
1040
0.0
1002
}
  0
INSERT
  5
35A
  8
0
  6
CONTINUOUS
 62
    12
  2
*U18
 10
0.0
 20
0.0
 30
0.0
1001
ACAD
1002
{
1000
R14_HATCH_DATA
1000
35A
1011
1.0
1021
0.0
1031
0.0
1021
0.0
1031
0.0
1011
0.0
1021
0.0
1031
0.0
1021
1.0
1031
0.0
1011
0.0
1021
0.0
1031
0.0
1021
0.0
1031
1.0
1040
0.0
1010
0.0
1020
0.0
1030
1.0
1000
SOLID
1070
     1
1070
     0
1071
        1
1071
        1
1071
        4
1070
     3
1040
8.661465634085161
1040
8.6614656340851752
1040
-2.6468557151169261
1040
2.6468557151169692
1040
0.9230906790817904
1040
4.7123889803846808
1040
6.2831853071795862
1070
     0
1070
     1
1040
6.0146099189682181
1040
11.30832134920211
1040
7.9620276993582593
1040
13.085418729976791
1070
     3
1040
11.220576884095181
1040
11.18357669303253
1040
-2.9368829533683871
1040
2.3874414630079039
1040
0.8881099481089412
1040
6.456513244785179
1040
7.755668472620953
1070
     1
1070
     1
1040
8.8222356798165649
1040
8.8222356798165578
1040
6.218177794586345
1040
6.2181777945863379
1071
        0
1070
     0
1070
     1
1071
        1
1040
0.0
1040
0.0
1040
0.0
1002
}
  0
INSERT
  5
35B
  8
0
  6
CONTINUOUS
 62
    10
  2
*U19
 10
0.0
 20
0.0
 30
0.0
1001
ACAD
1002
{
1000
R14_HATCH_DATA
1000
35B
1011
1.0
1021
0.0
1031
0.0
1021
0.0
1031
0.0
1011
0.0
1021
0.0
1031
0.0
1021
1.0
1031
0.0
1011
0.0
1021
0.0
1031
0.0
1021
0.0
1031
1.0
1040
0.0
1010
0.0
1020
0.0
1030
1.0
1000
SOLID
1070
     1
1070
     0
1071
        1
1071
        1
1071
        3
1070
     1
1040
3.8709865571331288
1040
3.8709865571331359
1040
6.218177794586345
1040
6.218177794586353
1070
     3
1040
8.661465634085161
1040
8.6614656340851752
1040
-2.6468557151169261
1040
2.6468557151169692
1040
0.9230906790817904
1040
4.7123889803846808
1040
6.2831853071795862
1070
     0
1070
     3
1040
6.752665742288996
1040
6.752665742288996
1040
-3.5331082466684021
1040
3.533108246668403
1040
0.8156215388739339
1040
5.5591787388102061
1040
7.8539816339744828
1070
     1
1071
        0
1070
     0
1070
     1
1071
        1
1040
0.0
1040
0.0
1040
0.0
1002
}
  0
INSERT
  5
35C
  8
0
  6
CONTINUOUS
 62
    12
  2
*U20
 10
0.0
 20
0.0
 30
0.0
1001
ACAD
1002
{
1000
R14_HATCH_DATA
1000
35C
1011
1.0
1021
0.0
1031
0.0
1021
0.0
1031
0.0
1011
0.0
1021
0.0
1031
0.0
1021
1.0
1031
0.0
1011
0.0
1021
0.0
1031
0.0
1021
0.0
1031
1.0
1040
0.0
1010
0.0
1020
0.0
1030
1.0
1000
SOLID
1070
     1
1070
     0
1071
        1
1071
        1
1071
        3
1070
     3
1040
12.732493259273721
1040
12.732493259273721
1040
3.5094660308855969
1040
-3.5094660308856098
1040
0.9207951268990203
1040
3.8941565331446721
1040
4.7123889803846897
1070
     1
1070
     1
1040
9.5009940400166073
1040
9.5009940400166073
1040
8.8222356798165649
1040
8.8222356798165578
1070
     3
1040
11.220576884095181
1040
11.18357669303253
1040
-2.9368829533683871
1040
2.3874414630079039
1040
0.8881099481089412
1040
-1.472483165441367
1040
-0.1733279376055938
1070
     0
1071
        0
1070
     0
1070
     1
1071
        1
1040
0.0
1040
0.0
1040
0.0
1002
}
  0
ENDBLK
  5
34E
  8
0
  0
BLOCK
  8
0
  2
*U4
 70
     1
 10
0.0
 20
0.0
 30
0.0
  3
*U4
  1

  0
SOLID
  5
B8D
  8
0
  6
CONTINUOUS
 62
   133
 10
7.7500053640320274
 20
0.1999901374336161
 30
0.0
 11
0.0
 21
0.0
 31
0.0
 12
7.7500053640320274
 22
0.0
 32
0.0
 13
7.7500053640320274
 23
0.0
 33
0.0
210
0.0
220
0.0
230
1.0
  0
SOLID
  5
B8E
  8
0
  6
CONTINUOUS
 62
   133
 10
0.0
 20
0.0
 30
0.0
 11
-7.7500053640320274
 21
0.0
 31
0.0
 12
-7.7500053640320274
 22
-0.1999901374336161
 32
0.0
 13
-7.7500053640320274
 23
-0.1999901374336161
 33
0.0
210
0.0
220
0.0
230
-1.0
  0
LINE
  5
B8F
  8
0
  6
CONTINUOUS
 62
   133
 10
7.7500053640320274
 20
0.1999901374336161
 30
0.0
 11
0.0
 21
0.0
 31
0.0
  0
LINE
  5
B90
  8
0
  6
CONTINUOUS
 62
   133
 10
7.7500053640320274
 20
0.0
 30
0.0
 11
7.7500053640320274
 21
0.1999901374336161
 31
0.0
  0
LINE
  5
B91
  8
0
  6
CONTINUOUS
 62
   133
 10
7.7500053640320274
 20
0.0
 30
0.0
 11
7.7500053640320274
 21
-0.1999901374336161
 31
0.0
  0
LINE
  5
B92
  8
0
  6
CONTINUOUS
 62
   133
 10
7.7500053640320274
 20
-0.1999901374336161
 30
0.0
 11
0.0
 21
0.0
 31
0.0
  0
ENDBLK
  5
B94
  8
0
  0
BLOCK
  8
0
  2
*U5
 70
     1
 10
0.0
 20
0.0
 30
0.0
  3
*U5
  1

  0
SOLID
  5
B96
  8
0
  6
CONTINUOUS
 62
     4
 10
-1.5
 20
1.5
 30
0.0
 11
-1.5
 21
-1.5
 31
0.0
 12
1.5
 22
-1.5
 32
0.0
 13
1.5
 23
-1.5
 33
0.0
210
0.0
220
0.0
230
1.0
  0
SOLID
  5
B97
  8
0
  6
CONTINUOUS
 62
     4
 10
1.5
 20
1.5
 30
0.0
 11
-1.5
 21
1.5
 31
0.0
 12
-1.5
 22
-1.5
 32
0.0
 13
-1.5
 23
-1.5
 33
0.0
210
0.0
220
0.0
230
-1.0
  0
LINE
  5
B98
  8
0
  6
CONTINUOUS
 62
     4
 10
-1.5
 20
1.5
 30
0.0
 11
-1.5
 21
-1.5
 31
0.0
  0
LINE
  5
B99
  8
0
  6
CONTINUOUS
 62
     4
 10
1.5
 20
1.5
 30
0.0
 11
1.5
 21
-1.5
 31
0.0
  0
ENDBLK
  5
B9B
  8
0
  0
BLOCK
  8
0
  2
*U6
 70
     1
 10
0.0
 20
0.0
 30
0.0
  3
*U6
  1

  0
SOLID
  5
B9D
  8
0
  6
CONTINUOUS
 62
    12
 10
11.204505025152359
 20
0.0
 30
0.0
 11
11.204505025152359
 21
-3.4002521523742351
 31
0.0
 12
18.5
 22
-3.4002521523742351
 32
0.0
 13
18.5
 23
-3.4002521523742351
 33
0.0
210
0.0
220
0.0
230
1.0
  0
SOLID
  5
B9E
  8
0
  6
CONTINUOUS
 62
    12
 10
-11.204505025152359
 20
0.0
 30
0.0
 11
-18.5
 21
0.0
 31
0.0
 12
-18.5
 22
-3.4002521523742351
 32
0.0
 13
-18.5
 23
-3.4002521523742351
 33
0.0
210
0.0
220
0.0
230
-1.0
  0
SOLID
  5
B9F
  8
0
  6
CONTINUOUS
 62
    12
 10
-17.000038288258029
 20
-4.999970053555443
 30
0.0
 11
-18.5
 21
-4.999970053555443
 31
0.0
 12
-18.5
 22
-4.9999810967128431
 32
0.0
 13
-18.5
 23
-4.9999810967128431
 33
0.0
210
0.0
220
0.0
230
-1.0
  0
SOLID
  5
BA0
  8
0
  6
CONTINUOUS
 62
    12
 10
17.000038288258029
 20
-3.4002521523742351
 30
0.0
 11
17.000038288258029
 21
-4.999970053555443
 31
0.0
 12
18.5
 22
-4.999970053555443
 32
0.0
 13
18.5
 23
-4.999970053555443
 33
0.0
210
0.0
220
0.0
230
1.0
  0
SOLID
  5
BA1
  8
0
  6
CONTINUOUS
 62
    12
 10
-17.000038288258029
 20
-3.4002521523742351
 30
0.0
 11
-18.5
 21
-3.4002521523742351
 31
0.0
 12
-18.5
 22
-4.999970053555443
 32
0.0
 13
-18.5
 23
-4.999970053555443
 33
0.0
210
0.0
220
0.0
230
-1.0
  0
LINE
  5
BA2
  8
0
  6
CONTINUOUS
 62
    12
 10
11.204505025152359
 20
0.0
 30
0.0
 11
11.204505025152359
 21
-3.4002521523742351
 31
0.0
  0
LINE
  5
BA3
  8
0
  6
CONTINUOUS
 62
    12
 10
18.5
 20
0.0
 30
0.0
 11
18.5
 21
-3.4002521523742351
 31
0.0
  0
LINE
  5
BA4
  8
0
  6
CONTINUOUS
 62
    12
 10
18.5
 20
-4.999970053555443
 30
0.0
 11
18.5
 21
-4.9999810967128431
 31
0.0
  0
LINE
  5
BA5
  8
0
  6
CONTINUOUS
 62
    12
 10
18.5
 20
-4.9999810967128431
 30
0.0
 11
17.000038288258029
 21
-4.999970053555443
 31
0.0
  0
LINE
  5
BA6
  8
0
  6
CONTINUOUS
 62
    12
 10
17.000038288258029
 20
-3.4002521523742351
 30
0.0
 11
17.000038288258029
 21
-4.999970053555443
 31
0.0
  0
LINE
  5
BA7
  8
0
  6
CONTINUOUS
 62
    12
 10
18.5
 20
-3.4002521523742351
 30
0.0
 11
18.5
 21
-4.999970053555443
 31
0.0
  0
ENDBLK
  5
BA9
  8
0
  0
BLOCK
  8
0
  2
*U7
 70
     1
 10
0.0
 20
0.0
 30
0.0
  3
*U7
  1

  0
SOLID
  5
BAB
  8
0
  6
CONTINUOUS
 62
    10
 10
17.000028595028159
 20
5.000018903287156
 30
0.0
 11
17.000028595028159
 21
3.4002521523742351
 31
0.0
 12
18.5
 22
3.4002521523742351
 32
0.0
 13
18.5
 23
3.4002521523742351
 33
0.0
210
0.0
220
0.0
230
1.0
  0
SOLID
  5
BAC
  8
0
  6
CONTINUOUS
 62
    10
 10
-17.000028595028159
 20
5.000018903287156
 30
0.0
 11
-18.5
 21
5.000018903287156
 31
0.0
 12
-18.5
 22
3.4002521523742351
 32
0.0
 13
-18.5
 23
3.4002521523742351
 33
0.0
210
0.0
220
0.0
230
-1.0
  0
SOLID
  5
BAD
  8
0
  6
CONTINUOUS
 62
    10
 10
11.204505025152359
 20
3.4002521523742351
 30
0.0
 11
11.204505025152359
 21
0.0
 31
0.0
 12
18.5
 22
0.0
 32
0.0
 13
18.5
 23
0.0
 33
0.0
210
0.0
220
0.0
230
1.0
  0
SOLID
  5
BAE
  8
0
  6
CONTINUOUS
 62
    10
 10
-11.204505025152359
 20
3.4002521523742351
 30
0.0
 11
-18.5
 21
3.4002521523742351
 31
0.0
 12
-18.5
 22
0.0
 32
0.0
 13
-18.5
 23
0.0
 33
0.0
210
0.0
220
0.0
230
-1.0
  0
LINE
  5
BAF
  8
0
  6
CONTINUOUS
 62
    10
 10
17.000028595028159
 20
5.000018903287156
 30
0.0
 11
17.000028595028159
 21
3.4002521523742351
 31
0.0
  0
LINE
  5
BB0
  8
0
  6
CONTINUOUS
 62
    10
 10
18.5
 20
5.000018903287156
 30
0.0
 11
18.5
 21
3.4002521523742351
 31
0.0
  0
LINE
  5
BB1
  8
0
  6
CONTINUOUS
 62
    10
 10
11.204505025152359
 20
3.4002521523742351
 30
0.0
 11
11.204505025152359
 21
0.0
 31
0.0
  0
LINE
  5
BB2
  8
0
  6
CONTINUOUS
 62
    10
 10
18.5
 20
3.4002521523742351
 30
0.0
 11
18.5
 21
0.0
 31
0.0
  0
ENDBLK
  5
BB4
  8
0
  0
BLOCK
  8
0
  2
*U8
 70
     1
 10
0.0
 20
0.0
 30
0.0
  3
*U8
  1

  0
SOLID
  5
BB6
  8
0
  6
CONTINUOUS
 62
    14
 10
-7.7500053640320274
 20
-3.4002521523742351
 30
0.0
 11
-11.204505025152359
 21
-3.4002521523742351
 31
0.0
 12
-7.7500053640320274
 22
-5.0000188823323981
 32
0.0
 13
-7.7500053640320274
 23
-5.0000188823323981
 33
0.0
210
0.0
220
0.0
230
-1.0
  0
SOLID
  5
BB7
  8
0
  6
CONTINUOUS
 62
    14
 10
7.7500053640320274
 20
0.0
 30
0.0
 11
7.7500053640320274
 21
-3.4002521523742351
 31
0.0
 12
11.204505025152359
 22
-3.4002521523742351
 32
0.0
 13
11.204505025152359
 23
-3.4002521523742351
 33
0.0
210
0.0
220
0.0
230
1.0
  0
SOLID
  5
BB8
  8
0
  6
CONTINUOUS
 62
    14
 10
-7.7500053640320274
 20
0.0
 30
0.0
 11
-11.204505025152359
 21
0.0
 31
0.0
 12
-11.204505025152359
 22
-3.4002521523742351
 32
0.0
 13
-11.204505025152359
 23
-3.4002521523742351
 33
0.0
210
0.0
220
0.0
230
-1.0
  0
LINE
  5
BB9
  8
0
  6
CONTINUOUS
 62
    14
 10
11.204505025152359
 20
-3.4002521523742351
 30
0.0
 11
7.7500053640320274
 21
-5.0000188823323981
 31
0.0
  0
LINE
  5
BBA
  8
0
  6
CONTINUOUS
 62
    14
 10
7.7500053640320274
 20
-5.0000188823323981
 30
0.0
 11
7.7500053640320274
 21
-3.4002521523742351
 31
0.0
  0
LINE
  5
BBB
  8
0
  6
CONTINUOUS
 62
    14
 10
7.7500053640320274
 20
0.0
 30
0.0
 11
7.7500053640320274
 21
-3.4002521523742351
 31
0.0
  0
LINE
  5
BBC
  8
0
  6
CONTINUOUS
 62
    14
 10
11.204505025152359
 20
0.0
 30
0.0
 11
11.204505025152359
 21
-3.4002521523742351
 31
0.0
  0
ENDBLK
  5
BBE
  8
0
  0
BLOCK
  8
0
  2
*U9
 70
     1
 10
0.0
 20
0.0
 30
0.0
  3
*U9
  1

  0
SOLID
  5
BC0
  8
0
  6
CONTINUOUS
 62
    22
 10
7.7500053640320274
 20
5.0000188823323981
 30
0.0
 11
7.7500053640320274
 21
3.4002521523742351
 31
0.0
 12
11.204505025152359
 22
3.4002521523742351
 32
0.0
 13
11.204505025152359
 23
3.4002521523742351
 33
0.0
  0
SOLID
  5
BC1
  8
0
  6
CONTINUOUS
 62
    22
 10
7.7500053640320274
 20
3.4002521523742351
 30
0.0
 11
7.7500053640320274
 21
0.0
 31
0.0
 12
11.204505025152359
 22
0.0
 32
0.0
 13
11.204505025152359
 23
0.0
 33
0.0
210
0.0
220
0.0
230
1.0
  0
SOLID
  5
BC2
  8
0
  6
CONTINUOUS
 62
    22
 10
-7.7500053640320274
 20
3.4002521523742351
 30
0.0
 11
-11.204505025152359
 21
3.4002521523742351
 31
0.0
 12
-11.204505025152359
 22
0.0
 32
0.0
 13
-11.204505025152359
 23
0.0
 33
0.0
210
0.0
220
0.0
230
-1.0
  0
LINE
  5
BC3
  8
0
  6
CONTINUOUS
 62
    22
 10
7.7500053640320274
 20
5.0000188823323981
 30
0.0
 11
7.7500053640320274
 21
3.4002521523742351
 31
0.0
  0
LINE
  5
BC4
  8
0
  6
CONTINUOUS
 62
    22
 10
11.204505025152359
 20
3.4002521523742351
 30
0.0
 11
7.7500053640320274
 21
5.0000188823323981
 31
0.0
  0
LINE
  5
BC5
  8
0
  6
CONTINUOUS
 62
    22
 10
7.7500053640320274
 20
3.4002521523742351
 30
0.0
 11
7.7500053640320274
 21
0.0
 31
0.0
  0
LINE
  5
BC6
  8
0
  6
CONTINUOUS
 62
    22
 10
11.204505025152359
 20
3.4002521523742351
 30
0.0
 11
11.204505025152359
 21
0.0
 31
0.0
  0
ENDBLK
  5
BC8
  8
0
  0
BLOCK
  8
0
  2
*U10
 70
     1
 10
0.0
 20
0.0
 30
0.0
  3
*U10
  1

  0
SOLID
  5
BCA
  8
0
  6
CONTINUOUS
 62
    14
 10
9.5009940400166073
 20
9.5009940400166073
 30
0.0
 11
8.9724157517266345
 21
8.9724157517266363
 31
0.0
 12
10.115919480481089
 22
8.9724157517266363
 32
0.0
 13
10.115919480481089
 23
8.9724157517266363
 33
0.0
210
0.0
220
0.0
230
1.0
  0
SOLID
  5
BCB
  8
0
  6
CONTINUOUS
 62
    14
 10
8.9724157517266345
 20
8.9724157517266363
 30
0.0
 11
8.8222356798165613
 21
8.8222356798165631
 31
0.0
 12
10.35616193985331
 22
8.8222356798165631
 32
0.0
 13
10.35616193985331
 23
8.8222356798165631
 33
0.0
210
0.0
220
0.0
230
1.0
  0
SOLID
  5
BCC
  8
0
  6
CONTINUOUS
 62
    14
 10
-8.9724157517266345
 20
8.9724157517266363
 30
0.0
 11
-10.115919480481089
 21
8.9724157517266363
 31
0.0
 12
-10.35616193985331
 22
8.8222356798165631
 32
0.0
 13
-10.35616193985331
 23
8.8222356798165631
 33
0.0
210
0.0
220
0.0
230
-1.0
  0
SOLID
  5
BCD
  8
0
  6
CONTINUOUS
 62
    14
 10
8.8222356798165613
 20
8.8222356798165631
 30
0.0
 11
9.1403563887693906
 21
8.5443084716910889
 31
0.0
 12
10.800760981239449
 22
8.5443084716910889
 32
0.0
 13
10.800760981239449
 23
8.5443084716910889
 33
0.0
210
0.0
220
0.0
230
1.0
  0
SOLID
  5
BCE
  8
0
  6
CONTINUOUS
 62
    14
 10
-8.8222356798165613
 20
8.8222356798165631
 30
0.0
 11
-10.35616193985331
 21
8.8222356798165631
 31
0.0
 12
-10.800760981239449
 22
8.5443084716910889
 32
0.0
 13
-10.800760981239449
 23
8.5443084716910889
 33
0.0
210
0.0
220
0.0
230
-1.0
  0
SOLID
  5
BCF
  8
0
  6
CONTINUOUS
 62
    14
 10
9.1403563887693906
 20
8.5443084716910889
 30
0.0
 11
9.3484568218760877
 21
8.3625008409542207
 31
0.0
 12
11.224211282405649
 22
8.3625008409542207
 32
0.0
 13
11.224211282405649
 23
8.3625008409542207
 33
0.0
210
0.0
220
0.0
230
1.0
  0
SOLID
  5
BD0
  8
0
  6
CONTINUOUS
 62
    14
 10
-9.1403563887693906
 20
8.5443084716910889
 30
0.0
 11
-10.800760981239449
 21
8.5443084716910889
 31
0.0
 12
-11.224211282405649
 22
8.3625008409542207
 32
0.0
 13
-11.224211282405649
 23
8.3625008409542207
 33
0.0
210
0.0
220
0.0
230
-1.0
  0
SOLID
  5
BD1
  8
0
  6
CONTINUOUS
 62
    14
 10
9.3484568218760877
 20
8.3625008409542207
 30
0.0
 11
9.5674708100706773
 21
8.2281114242291142
 31
0.0
 12
11.53721926097702
 22
8.2281114242291142
 32
0.0
 13
11.53721926097702
 23
8.2281114242291142
 33
0.0
210
0.0
220
0.0
230
1.0
  0
SOLID
  5
BD2
  8
0
  6
CONTINUOUS
 62
    14
 10
-9.3484568218760877
 20
8.3625008409542207
 30
0.0
 11
-11.224211282405649
 21
8.3625008409542207
 31
0.0
 12
-11.53721926097702
 22
8.2281114242291142
 32
0.0
 13
-11.53721926097702
 23
8.2281114242291142
 33
0.0
210
0.0
220
0.0
230
-1.0
  0
SOLID
  5
BD3
  8
0
  6
CONTINUOUS
 62
    14
 10
9.5674708100706773
 20
8.2281114242291142
 30
0.0
 11
9.8866271617501909
 21
8.032273540540082
 31
0.0
 12
12.30561581419648
 22
8.032273540540082
 32
0.0
 13
12.30561581419648
 23
8.032273540540082
 33
0.0
  0
SOLID
  5
BD4
  8
0
  6
CONTINUOUS
 62
    14
 10
-9.5674708100706773
 20
8.2281114242291142
 30
0.0
 11
-11.53721926097702
 21
8.2281114242291142
 31
0.0
 12
-12.30561581419648
 22
8.032273540540082
 32
0.0
 13
-12.30561581419648
 23
8.032273540540082
 33
0.0
210
0.0
220
0.0
230
-1.0
  0
SOLID
  5
BD5
  8
0
  6
CONTINUOUS
 62
    14
 10
9.8866271617501909
 20
8.032273540540082
 30
0.0
 11
9.9377074091940667
 21
8.0009301331315221
 31
0.0
 12
12.653560690028209
 22
8.0009301331315221
 32
0.0
 13
12.653560690028209
 23
8.0009301331315221
 33
0.0
210
0.0
220
0.0
230
1.0
  0
SOLID
  5
BD6
  8
0
  6
CONTINUOUS
 62
    14
 10
-9.8866271617501909
 20
8.032273540540082
 30
0.0
 11
-12.30561581419648
 21
8.032273540540082
 31
0.0
 12
-12.653560690028209
 22
8.0009301331315221
 32
0.0
 13
-12.653560690028209
 23
8.0009301331315221
 33
0.0
210
0.0
220
0.0
230
-1.0
  0
SOLID
  5
BD7
  8
0
  6
CONTINUOUS
 62
    14
 10
9.9377074091940667
 20
8.0009301331315221
 30
0.0
 11
10.03567206802501
 21
7.9620276993583143
 31
0.0
 12
13.0854187299768
 22
7.9620276993583143
 32
0.0
 13
13.0854187299768
 23
7.9620276993583143
 33
0.0
210
0.0
220
0.0
230
1.0
  0
SOLID
  5
BD8
  8
0
  6
CONTINUOUS
 62
    14
 10
-9.9377074091940667
 20
8.0009301331315221
 30
0.0
 11
-12.653560690028209
 21
8.0009301331315221
 31
0.0
 12
-13.0854187299768
 22
7.9620276993583143
 32
0.0
 13
-13.0854187299768
 23
7.9620276993583143
 33
0.0
210
0.0
220
0.0
230
-1.0
  0
SOLID
  5
BD9
  8
0
  6
CONTINUOUS
 62
    14
 10
10.03567206802501
 20
7.9620276993583143
 30
0.0
 11
10.56974890682757
 21
7.7499421462694658
 31
0.0
 12
12.56167977077588
 22
7.7499421462694658
 32
0.0
 13
12.56167977077588
 23
7.7499421462694658
 33
0.0
210
0.0
220
0.0
230
1.0
  0
SOLID
  5
BDA
  8
0
  6
CONTINUOUS
 62
    14
 10
-10.03567206802501
 20
7.9620276993583143
 30
0.0
 11
-13.0854187299768
 21
7.9620276993583143
 31
0.0
 12
-12.56167977077588
 22
7.7499421462694658
 32
0.0
 13
-12.56167977077588
 23
7.7499421462694658
 33
0.0
210
0.0
220
0.0
230
-1.0
  0
SOLID
  5
BDB
  8
0
  6
CONTINUOUS
 62
    14
 10
10.56974890682757
 20
7.7499421462694658
 30
0.0
 11
10.688143042523381
 21
7.7260530523303323
 31
0.0
 12
12.502686364512639
 22
7.7260530523303323
 32
0.0
 13
12.502686364512639
 23
7.7260530523303323
 33
0.0
  0
SOLID
  5
BDC
  8
0
  6
CONTINUOUS
 62
    14
 10
-10.56974890682757
 20
7.7499421462694658
 30
0.0
 11
-12.56167977077588
 21
7.7499421462694658
 31
0.0
 12
-12.502686364512639
 22
7.7260530523303323
 32
0.0
 13
-12.502686364512639
 23
7.7260530523303323
 33
0.0
210
0.0
220
0.0
230
-1.0
  0
SOLID
  5
BDD
  8
0
  6
CONTINUOUS
 62
    14
 10
-11.222873073477309
 20
7.6181573709567632
 30
0.0
 11
-11.918278184744491
 21
7.6181573709567632
 31
0.0
 12
-11.874647557689951
 22
7.6101021171157326
 32
0.0
 13
-11.874647557689951
 23
7.6101021171157326
 33
0.0
210
0.0
220
0.0
230
-1.0
  0
SOLID
  5
BDE
  8
0
  6
CONTINUOUS
 62
    14
 10
10.688143042523381
 20
7.7260530523303323
 30
0.0
 11
11.222873073477309
 21
7.6181573709567632
 31
0.0
 12
11.918278184744491
 22
7.6181573709567632
 32
0.0
 13
11.918278184744491
 23
7.6181573709567632
 33
0.0
210
0.0
220
0.0
230
1.0
  0
SOLID
  5
BDF
  8
0
  6
CONTINUOUS
 62
    14
 10
-10.688143042523381
 20
7.7260530523303323
 30
0.0
 11
-12.502686364512639
 21
7.7260530523303323
 31
0.0
 12
-11.918278184744491
 22
7.6181573709567632
 32
0.0
 13
-11.918278184744491
 23
7.6181573709567632
 33
0.0
210
0.0
220
0.0
230
-1.0
  0
LINE
  5
BE0
  8
0
  6
CONTINUOUS
 62
    14
 10
9.5009940400166073
 20
9.5009940400166073
 30
0.0
 11
8.9724157517266345
 21
8.9724157517266363
 31
0.0
  0
LINE
  5
BE1
  8
0
  6
CONTINUOUS
 62
    14
 10
10.115919480481089
 20
8.9724157517266363
 30
0.0
 11
9.5009940400166073
 21
9.5009940400166073
 31
0.0
  0
LINE
  5
BE2
  8
0
  6
CONTINUOUS
 62
    14
 10
8.9724157517266345
 20
8.9724157517266363
 30
0.0
 11
8.8222356798165613
 21
8.8222356798165631
 31
0.0
  0
LINE
  5
BE3
  8
0
  6
CONTINUOUS
 62
    14
 10
10.115919480481089
 20
8.9724157517266363
 30
0.0
 11
10.35616193985331
 21
8.8222356798165631
 31
0.0
  0
LINE
  5
BE4
  8
0
  6
CONTINUOUS
 62
    14
 10
8.8222356798165613
 20
8.8222356798165631
 30
0.0
 11
9.1403563887693906
 21
8.5443084716910889
 31
0.0
  0
LINE
  5
BE5
  8
0
  6
CONTINUOUS
 62
    14
 10
10.35616193985331
 20
8.8222356798165631
 30
0.0
 11
10.800760981239449
 21
8.5443084716910889
 31
0.0
  0
LINE
  5
BE6
  8
0
  6
CONTINUOUS
 62
    14
 10
9.1403563887693906
 20
8.5443084716910889
 30
0.0
 11
9.3484568218760877
 21
8.3625008409542207
 31
0.0
  0
LINE
  5
BE7
  8
0
  6
CONTINUOUS
 62
    14
 10
10.800760981239449
 20
8.5443084716910889
 30
0.0
 11
11.224211282405649
 21
8.3625008409542207
 31
0.0
  0
LINE
  5
BE8
  8
0
  6
CONTINUOUS
 62
    14
 10
9.3484568218760877
 20
8.3625008409542207
 30
0.0
 11
9.5674708100706773
 21
8.2281114242291142
 31
0.0
  0
LINE
  5
BE9
  8
0
  6
CONTINUOUS
 62
    14
 10
11.224211282405649
 20
8.3625008409542207
 30
0.0
 11
11.53721926097702
 21
8.2281114242291142
 31
0.0
  0
LINE
  5
BEA
  8
0
  6
CONTINUOUS
 62
    14
 10
9.5674708100706773
 20
8.2281114242291142
 30
0.0
 11
9.8866271617501909
 21
8.032273540540082
 31
0.0
  0
LINE
  5
BEB
  8
0
  6
CONTINUOUS
 62
    14
 10
11.53721926097702
 20
8.2281114242291142
 30
0.0
 11
12.30561581419648
 21
8.032273540540082
 31
0.0
  0
LINE
  5
BEC
  8
0
  6
CONTINUOUS
 62
    14
 10
9.8866271617501909
 20
8.032273540540082
 30
0.0
 11
9.9377074091940667
 21
8.0009301331315221
 31
0.0
  0
LINE
  5
BED
  8
0
  6
CONTINUOUS
 62
    14
 10
12.30561581419648
 20
8.032273540540082
 30
0.0
 11
12.653560690028209
 21
8.0009301331315221
 31
0.0
  0
LINE
  5
BEE
  8
0
  6
CONTINUOUS
 62
    14
 10
9.9377074091940667
 20
8.0009301331315221
 30
0.0
 11
10.03567206802501
 21
7.9620276993583143
 31
0.0
  0
LINE
  5
BEF
  8
0
  6
CONTINUOUS
 62
    14
 10
12.653560690028209
 20
8.0009301331315221
 30
0.0
 11
13.0854187299768
 21
7.9620276993583143
 31
0.0
  0
LINE
  5
BF0
  8
0
  6
CONTINUOUS
 62
    14
 10
10.03567206802501
 20
7.9620276993583143
 30
0.0
 11
10.56974890682757
 21
7.7499421462694658
 31
0.0
  0
LINE
  5
BF1
  8
0
  6
CONTINUOUS
 62
    14
 10
13.0854187299768
 20
7.9620276993583143
 30
0.0
 11
12.56167977077588
 21
7.7499421462694658
 31
0.0
  0
LINE
  5
BF2
  8
0
  6
CONTINUOUS
 62
    14
 10
10.56974890682757
 20
7.7499421462694658
 30
0.0
 11
10.688143042523381
 21
7.7260530523303323
 31
0.0
  0
LINE
  5
BF3
  8
0
  6
CONTINUOUS
 62
    14
 10
12.56167977077588
 20
7.7499421462694658
 30
0.0
 11
12.502686364512639
 21
7.7260530523303323
 31
0.0
  0
LINE
  5
BF4
  8
0
  6
CONTINUOUS
 62
    14
 10
11.918278184744491
 20
7.6181573709567632
 30
0.0
 11
11.874647557689951
 21
7.6101021171157326
 31
0.0
  0
LINE
  5
BF5
  8
0
  6
CONTINUOUS
 62
    14
 10
11.874647557689951
 20
7.6101021171157326
 30
0.0
 11
11.222873073477309
 21
7.6181573709567632
 31
0.0
  0
LINE
  5
BF6
  8
0
  6
CONTINUOUS
 62
    14
 10
10.688143042523381
 20
7.7260530523303323
 30
0.0
 11
11.222873073477309
 21
7.6181573709567632
 31
0.0
  0
LINE
  5
BF7
  8
0
  6
CONTINUOUS
 62
    14
 10
12.502686364512639
 20
7.7260530523303323
 30
0.0
 11
11.918278184744491
 21
7.6181573709567632
 31
0.0
  0
ENDBLK
  5
BF9
  8
0
  0
BLOCK
  8
0
  2
*U11
 70
     1
 10
0.0
 20
0.0
 30
0.0
  3
*U11
  1

  0
SOLID
  5
BFB
  8
0
  6
CONTINUOUS
 62
    12
 10
6.2181777945863397
 20
6.2181777945863503
 30
0.0
 11
6.0146099189681808
 21
6.0146099189681914
 31
0.0
 12
6.4575146422963181
 22
6.0146099189681914
 32
0.0
 13
6.4575146422963181
 23
6.0146099189681914
 33
0.0
210
0.0
220
0.0
230
1.0
  0
SOLID
  5
BFC
  8
0
  6
CONTINUOUS
 62
    12
 10
11.308321349202121
 20
6.0146099189681914
 30
0.0
 11
11.043541052730079
 21
5.7956751554289241
 31
0.0
 12
11.29569151105833
 22
5.7956751554289241
 32
0.0
 13
11.29569151105833
 23
5.7956751554289241
 33
0.0
210
0.0
220
0.0
230
1.0
  0
SOLID
  5
BFD
  8
0
  6
CONTINUOUS
 62
    12
 10
6.0146099189681808
 20
6.0146099189681914
 30
0.0
 11
5.7956751554289161
 21
5.7956751554289241
 31
0.0
 12
6.7149184983836356
 22
5.7956751554289241
 32
0.0
 13
6.7149184983836356
 23
5.7956751554289241
 33
0.0
210
0.0
220
0.0
230
1.0
  0
SOLID
  5
BFE
  8
0
  6
CONTINUOUS
 62
    12
 10
-6.0146099189681808
 20
6.0146099189681914
 30
0.0
 11
-6.4575146422963181
 21
6.0146099189681914
 31
0.0
 12
-6.7149184983836356
 22
5.7956751554289241
 32
0.0
 13
-6.7149184983836356
 23
5.7956751554289241
 33
0.0
210
0.0
220
0.0
230
-1.0
  0
SOLID
  5
BFF
  8
0
  6
CONTINUOUS
 62
    12
 10
11.043541052730079
 20
5.7956751554289241
 30
0.0
 11
10.84383718259229
 21
5.6305491238886081
 31
0.0
 12
11.28616577372012
 22
5.6305491238886081
 32
0.0
 13
11.28616577372012
 23
5.6305491238886081
 33
0.0
210
0.0
220
0.0
230
1.0
  0
SOLID
  5
C00
  8
0
  6
CONTINUOUS
 62
    12
 10
-11.043541052730079
 20
5.7956751554289241
 30
0.0
 11
-11.29569151105833
 21
5.7956751554289241
 31
0.0
 12
-11.28616577372012
 22
5.6305491238886081
 32
0.0
 13
-11.28616577372012
 23
5.6305491238886081
 33
0.0
210
0.0
220
0.0
230
-1.0
  0
SOLID
  5
C01
  8
0
  6
CONTINUOUS
 62
    12
 10
5.7956751554289161
 20
5.7956751554289241
 30
0.0
 11
5.4602481098055078
 21
5.4602481098055167
 31
0.0
 12
7.2708040518988462
 22
5.4602481098055167
 32
0.0
 13
7.2708040518988462
 23
5.4602481098055167
 33
0.0
210
0.0
220
0.0
230
1.0
  0
SOLID
  5
C02
  8
0
  6
CONTINUOUS
 62
    12
 10
-5.7956751554289161
 20
5.7956751554289241
 30
0.0
 11
-6.7149184983836356
 21
5.7956751554289241
 31
0.0
 12
-7.2708040518988462
 22
5.4602481098055167
 32
0.0
 13
-7.2708040518988462
 23
5.4602481098055167
 33
0.0
210
0.0
220
0.0
230
-1.0
  0
SOLID
  5
C03
  8
0
  6
CONTINUOUS
 62
    12
 10
10.84383718259229
 20
5.6305491238886081
 30
0.0
 11
10.313042760814341
 21
5.3385811932535301
 31
0.0
 12
11.26932282174902
 22
5.3385811932535301
 32
0.0
 13
11.26932282174902
 23
5.3385811932535301
 33
0.0
210
0.0
220
0.0
230
1.0
  0
SOLID
  5
C04
  8
0
  6
CONTINUOUS
 62
    12
 10
-10.84383718259229
 20
5.6305491238886081
 30
0.0
 11
-11.28616577372012
 21
5.6305491238886081
 31
0.0
 12
-11.26932282174902
 22
5.3385811932535301
 32
0.0
 13
-11.26932282174902
 23
5.3385811932535301
 33
0.0
210
0.0
220
0.0
230
-1.0
  0
SOLID
  5
C05
  8
0
  6
CONTINUOUS
 62
    12
 10
5.4602481098055078
 20
5.4602481098055167
 30
0.0
 11
5.2220884387631097
 21
5.2220884387631186
 31
0.0
 12
7.8689441538800731
 22
5.2220884387631186
 32
0.0
 13
7.8689441538800731
 23
5.2220884387631186
 33
0.0
210
0.0
220
0.0
230
1.0
  0
SOLID
  5
C06
  8
0
  6
CONTINUOUS
 62
    12
 10
-5.4602481098055078
 20
5.4602481098055167
 30
0.0
 11
-7.2708040518988462
 21
5.4602481098055167
 31
0.0
 12
-7.8689441538800731
 22
5.2220884387631186
 32
0.0
 13
-7.8689441538800731
 23
5.2220884387631186
 33
0.0
210
0.0
220
0.0
230
-1.0
  0
SOLID
  5
C07
  8
0
  6
CONTINUOUS
 62
    12
 10
10.313042760814341
 20
5.3385811932535301
 30
0.0
 11
9.8091305753009905
 21
5.1729134187847681
 31
0.0
 12
11.259765832519189
 22
5.1729134187847681
 32
0.0
 13
11.259765832519189
 23
5.1729134187847681
 33
0.0
  0
SOLID
  5
C08
  8
0
  6
CONTINUOUS
 62
    12
 10
-10.313042760814341
 20
5.3385811932535301
 30
0.0
 11
-11.26932282174902
 21
5.3385811932535301
 31
0.0
 12
-11.259765832519189
 22
5.1729134187847681
 32
0.0
 13
-11.259765832519189
 23
5.1729134187847681
 33
0.0
210
0.0
220
0.0
230
-1.0
  0
SOLID
  5
C09
  8
0
  6
CONTINUOUS
 62
    12
 10
9.8091305753009905
 20
5.1729134187847681
 30
0.0
 11
9.7320660037790798
 21
5.1475774248924644
 31
0.0
 12
11.252887223853129
 22
5.1475774248924644
 32
0.0
 13
11.252887223853129
 23
5.1475774248924644
 33
0.0
210
0.0
220
0.0
230
1.0
  0
SOLID
  5
C0A
  8
0
  6
CONTINUOUS
 62
    12
 10
-9.8091305753009905
 20
5.1729134187847681
 30
0.0
 11
-11.259765832519189
 21
5.1729134187847681
 31
0.0
 12
-11.252887223853129
 22
5.1475774248924644
 32
0.0
 13
-11.252887223853129
 23
5.1475774248924644
 33
0.0
210
0.0
220
0.0
230
-1.0
  0
SOLID
  5
C0B
  8
0
  6
CONTINUOUS
 62
    12
 10
5.2220884387631097
 20
5.2220884387631186
 30
0.0
 11
5.0884325033917381
 21
5.088432503391747
 31
0.0
 12
8.4911646200021114
 22
5.088432503391747
 32
0.0
 13
8.4911646200021114
 23
5.088432503391747
 33
0.0
210
0.0
220
0.0
230
1.0
  0
SOLID
  5
C0C
  8
0
  6
CONTINUOUS
 62
    12
 10
-5.2220884387631097
 20
5.2220884387631186
 30
0.0
 11
-7.8689441538800731
 21
5.2220884387631186
 31
0.0
 12
-8.4911646200021114
 22
5.088432503391747
 32
0.0
 13
-8.4911646200021114
 23
5.088432503391747
 33
0.0
210
0.0
220
0.0
230
-1.0
  0
SOLID
  5
C0D
  8
0
  6
CONTINUOUS
 62
    12
 10
9.7320660037790798
 20
5.1475774248924644
 30
0.0
 11
9.1185595962605923
 21
5.0633413716544906
 31
0.0
 12
11.23001751334324
 22
5.0633413716544906
 32
0.0
 13
11.23001751334324
 23
5.0633413716544906
 33
0.0
210
0.0
220
0.0
230
1.0
  0
SOLID
  5
C0E
  8
0
  6
CONTINUOUS
 62
    12
 10
-9.7320660037790798
 20
5.1475774248924644
 30
0.0
 11
-11.252887223853129
 21
5.1475774248924644
 31
0.0
 12
-11.23001751334324
 22
5.0633413716544906
 32
0.0
 13
-11.23001751334324
 23
5.0633413716544906
 33
0.0
210
0.0
220
0.0
230
-1.0
  0
SOLID
  5
C0F
  8
0
  6
CONTINUOUS
 62
    12
 10
5.0884325033917381
 20
5.088432503391747
 30
0.0
 11
5.0633413716544817
 21
5.0633413716544906
 31
0.0
 12
9.1185595962605923
 22
5.0633413716544906
 32
0.0
 13
9.1185595962605923
 23
5.0633413716544906
 33
0.0
  0
SOLID
  5
C10
  8
0
  6
CONTINUOUS
 62
    12
 10
-5.0884325033917381
 20
5.088432503391747
 30
0.0
 11
-8.4911646200021114
 21
5.088432503391747
 31
0.0
 12
-9.1185595962605923
 22
5.0633413716544906
 32
0.0
 13
-9.1185595962605923
 23
5.0633413716544906
 33
0.0
210
0.0
220
0.0
230
-1.0
  0
SOLID
  5
C11
  8
0
  6
CONTINUOUS
 62
    12
 10
5.0633413716544817
 20
5.0633413716544906
 30
0.0
 11
4.3888130564947812
 21
4.3888130564947883
 31
0.0
 12
11.04688610220216
 22
4.3888130564947883
 32
0.0
 13
11.04688610220216
 23
4.3888130564947883
 33
0.0
210
0.0
220
0.0
230
1.0
  0
SOLID
  5
C12
  8
0
  6
CONTINUOUS
 62
    12
 10
-5.0633413716544817
 20
5.0633413716544906
 30
0.0
 11
-11.23001751334324
 21
5.0633413716544906
 31
0.0
 12
-11.04688610220216
 22
4.3888130564947883
 32
0.0
 13
-11.04688610220216
 23
4.3888130564947883
 33
0.0
210
0.0
220
0.0
230
-1.0
  0
SOLID
  5
C13
  8
0
  6
CONTINUOUS
 62
    12
 10
4.3888130564947812
 20
4.3888130564947883
 30
0.0
 11
3.8709865571331288
 21
3.8709865571331359
 31
0.0
 12
10.77277438868644
 22
3.8709865571331359
 32
0.0
 13
10.77277438868644
 23
3.8709865571331359
 33
0.0
  0
SOLID
  5
C14
  8
0
  6
CONTINUOUS
 62
    12
 10
-4.3888130564947812
 20
4.3888130564947883
 30
0.0
 11
-11.04688610220216
 21
4.3888130564947883
 31
0.0
 12
-10.77277438868644
 22
3.8709865571331359
 32
0.0
 13
-10.77277438868644
 23
3.8709865571331359
 33
0.0
210
0.0
220
0.0
230
-1.0
  0
SOLID
  5
C15
  8
0
  6
CONTINUOUS
 62
    12
 10
3.8709865571331288
 20
3.8709865571331359
 30
0.0
 11
4.0816432237694196
 21
3.690896321362759
 31
0.0
 12
10.677443533322091
 22
3.690896321362759
 32
0.0
 13
10.677443533322091
 23
3.690896321362759
 33
0.0
  0
SOLID
  5
C16
  8
0
  6
CONTINUOUS
 62
    12
 10
-3.8709865571331288
 20
3.8709865571331359
 30
0.0
 11
-10.77277438868644
 21
3.8709865571331359
 31
0.0
 12
-10.677443533322091
 22
3.690896321362759
 32
0.0
 13
-10.677443533322091
 23
3.690896321362759
 33
0.0
210
0.0
220
0.0
230
-1.0
  0
SOLID
  5
C17
  8
0
  6
CONTINUOUS
 62
    12
 10
4.0816432237694196
 20
3.690896321362759
 30
0.0
 11
4.5950564115683408
 21
3.2519797491283451
 31
0.0
 12
10.293740321452191
 22
3.2519797491283451
 32
0.0
 13
10.293740321452191
 23
3.2519797491283451
 33
0.0
210
0.0
220
0.0
230
1.0
  0
SOLID
  5
C18
  8
0
  6
CONTINUOUS
 62
    12
 10
-4.0816432237694196
 20
3.690896321362759
 30
0.0
 11
-10.677443533322091
 21
3.690896321362759
 31
0.0
 12
-10.293740321452191
 22
3.2519797491283451
 32
0.0
 13
-10.293740321452191
 23
3.2519797491283451
 33
0.0
210
0.0
220
0.0
230
-1.0
  0
SOLID
  5
C19
  8
0
  6
CONTINUOUS
 62
    12
 10
4.5950564115683408
 20
3.2519797491283451
 30
0.0
 11
4.8358089786345291
 21
3.1046085366312761
 31
0.0
 12
10.164907620320809
 22
3.1046085366312761
 32
0.0
 13
10.164907620320809
 23
3.1046085366312761
 33
0.0
  0
SOLID
  5
C1A
  8
0
  6
CONTINUOUS
 62
    12
 10
-4.5950564115683408
 20
3.2519797491283451
 30
0.0
 11
-10.293740321452191
 21
3.2519797491283451
 31
0.0
 12
-10.164907620320809
 22
3.1046085366312761
 32
0.0
 13
-10.164907620320809
 23
3.1046085366312761
 33
0.0
210
0.0
220
0.0
230
-1.0
  0
SOLID
  5
C1B
  8
0
  6
CONTINUOUS
 62
    12
 10
4.8358089786345291
 20
3.1046085366312761
 30
0.0
 11
5.397790473476733
 21
2.7606043363643571
 31
0.0
 12
9.6815213334919559
 22
2.7606043363643571
 32
0.0
 13
9.6815213334919559
 23
2.7606043363643571
 33
0.0
  0
SOLID
  5
C1C
  8
0
  6
CONTINUOUS
 62
    12
 10
-4.8358089786345291
 20
3.1046085366312761
 30
0.0
 11
-10.164907620320809
 21
3.1046085366312761
 31
0.0
 12
-9.6815213334919559
 22
2.7606043363643571
 32
0.0
 13
-9.6815213334919559
 23
2.7606043363643571
 33
0.0
210
0.0
220
0.0
230
-1.0
  0
SOLID
  5
C1D
  8
0
  6
CONTINUOUS
 62
    12
 10
5.397790473476733
 20
2.7606043363643571
 30
0.0
 11
5.6670571755101742
 21
2.6513251493196099
 31
0.0
 12
9.5279648931570726
 22
2.6513251493196099
 32
0.0
 13
9.5279648931570726
 23
2.6513251493196099
 33
0.0
210
0.0
220
0.0
230
1.0
  0
SOLID
  5
C1E
  8
0
  6
CONTINUOUS
 62
    12
 10
-5.397790473476733
 20
2.7606043363643571
 30
0.0
 11
-9.6815213334919559
 21
2.7606043363643571
 31
0.0
 12
-9.5279648931570726
 22
2.6513251493196099
 32
0.0
 13
-9.5279648931570726
 23
2.6513251493196099
 33
0.0
210
0.0
220
0.0
230
-1.0
  0
SOLID
  5
C1F
  8
0
  6
CONTINUOUS
 62
    12
 10
5.6670571755101742
 20
2.6513251493196099
 30
0.0
 11
6.2499218881535841
 21
2.4147753588192189
 31
0.0
 12
8.9531425981182267
 22
2.4147753588192189
 32
0.0
 13
8.9531425981182267
 23
2.4147753588192189
 33
0.0
210
0.0
220
0.0
230
1.0
  0
SOLID
  5
C20
  8
0
  6
CONTINUOUS
 62
    12
 10
-5.6670571755101742
 20
2.6513251493196099
 30
0.0
 11
-9.5279648931570726
 21
2.6513251493196099
 31
0.0
 12
-8.9531425981182267
 22
2.4147753588192189
 32
0.0
 13
-8.9531425981182267
 23
2.4147753588192189
 33
0.0
210
0.0
220
0.0
230
-1.0
  0
SOLID
  5
C21
  8
0
  6
CONTINUOUS
 62
    12
 10
6.2499218881535841
 20
2.4147753588192189
 30
0.0
 11
6.5616195936739219
 21
2.347572403505378
 31
0.0
 12
8.7898376257266708
 22
2.347572403505378
 32
0.0
 13
8.7898376257266708
 23
2.347572403505378
 33
0.0
210
0.0
220
0.0
230
1.0
  0
SOLID
  5
C22
  8
0
  6
CONTINUOUS
 62
    12
 10
-6.2499218881535841
 20
2.4147753588192189
 30
0.0
 11
-8.9531425981182267
 21
2.4147753588192189
 31
0.0
 12
-8.7898376257266708
 22
2.347572403505378
 32
0.0
 13
-8.7898376257266708
 23
2.347572403505378
 33
0.0
210
0.0
220
0.0
230
-1.0
  0
SOLID
  5
C23
  8
0
  6
CONTINUOUS
 62
    12
 10
-7.1203828244377414
 20
2.2271013837866018
 30
0.0
 11
-8.1061327264718201
 21
2.2271013837866018
 31
0.0
 12
-7.9774371757439217
 22
2.2044248105364228
 32
0.0
 13
-7.9774371757439217
 23
2.2044248105364228
 33
0.0
210
0.0
220
0.0
230
-1.0
  0
SOLID
  5
C24
  8
0
  6
CONTINUOUS
 62
    12
 10
6.5616195936739219
 20
2.347572403505378
 30
0.0
 11
7.1203828244377414
 21
2.2271013837866018
 31
0.0
 12
8.1061327264718201
 22
2.2271013837866018
 32
0.0
 13
8.1061327264718201
 23
2.2271013837866018
 33
0.0
210
0.0
220
0.0
230
1.0
  0
SOLID
  5
C25
  8
0
  6
CONTINUOUS
 62
    12
 10
-6.5616195936739219
 20
2.347572403505378
 30
0.0
 11
-8.7898376257266708
 21
2.347572403505378
 31
0.0
 12
-8.1061327264718201
 22
2.2271013837866018
 32
0.0
 13
-8.1061327264718201
 23
2.2271013837866018
 33
0.0
210
0.0
220
0.0
230
-1.0
  0
LINE
  5
C26
  8
0
  6
CONTINUOUS
 62
    12
 10
6.2181777945863397
 20
6.2181777945863503
 30
0.0
 11
6.0146099189681808
 21
6.0146099189681914
 31
0.0
  0
LINE
  5
C27
  8
0
  6
CONTINUOUS
 62
    12
 10
6.4575146422963181
 20
6.0146099189681914
 30
0.0
 11
6.2181777945863397
 21
6.2181777945863503
 31
0.0
  0
LINE
  5
C28
  8
0
  6
CONTINUOUS
 62
    12
 10
11.308321349202121
 20
6.0146099189681914
 30
0.0
 11
11.043541052730079
 21
5.7956751554289241
 31
0.0
  0
LINE
  5
C29
  8
0
  6
CONTINUOUS
 62
    12
 10
11.29569151105833
 20
5.7956751554289241
 30
0.0
 11
11.308321349202121
 21
6.0146099189681914
 31
0.0
  0
LINE
  5
C2A
  8
0
  6
CONTINUOUS
 62
    12
 10
6.0146099189681808
 20
6.0146099189681914
 30
0.0
 11
5.7956751554289161
 21
5.7956751554289241
 31
0.0
  0
LINE
  5
C2B
  8
0
  6
CONTINUOUS
 62
    12
 10
6.4575146422963181
 20
6.0146099189681914
 30
0.0
 11
6.7149184983836356
 21
5.7956751554289241
 31
0.0
  0
LINE
  5
C2C
  8
0
  6
CONTINUOUS
 62
    12
 10
11.043541052730079
 20
5.7956751554289241
 30
0.0
 11
10.84383718259229
 21
5.6305491238886081
 31
0.0
  0
LINE
  5
C2D
  8
0
  6
CONTINUOUS
 62
    12
 10
11.29569151105833
 20
5.7956751554289241
 30
0.0
 11
11.28616577372012
 21
5.6305491238886081
 31
0.0
  0
LINE
  5
C2E
  8
0
  6
CONTINUOUS
 62
    12
 10
5.7956751554289161
 20
5.7956751554289241
 30
0.0
 11
5.4602481098055078
 21
5.4602481098055167
 31
0.0
  0
LINE
  5
C2F
  8
0
  6
CONTINUOUS
 62
    12
 10
6.7149184983836356
 20
5.7956751554289241
 30
0.0
 11
7.2708040518988462
 21
5.4602481098055167
 31
0.0
  0
LINE
  5
C30
  8
0
  6
CONTINUOUS
 62
    12
 10
10.84383718259229
 20
5.6305491238886081
 30
0.0
 11
10.313042760814341
 21
5.3385811932535301
 31
0.0
  0
LINE
  5
C31
  8
0
  6
CONTINUOUS
 62
    12
 10
11.28616577372012
 20
5.6305491238886081
 30
0.0
 11
11.26932282174902
 21
5.3385811932535301
 31
0.0
  0
LINE
  5
C32
  8
0
  6
CONTINUOUS
 62
    12
 10
5.4602481098055078
 20
5.4602481098055167
 30
0.0
 11
5.2220884387631097
 21
5.2220884387631186
 31
0.0
  0
LINE
  5
C33
  8
0
  6
CONTINUOUS
 62
    12
 10
7.2708040518988462
 20
5.4602481098055167
 30
0.0
 11
7.8689441538800731
 21
5.2220884387631186
 31
0.0
  0
LINE
  5
C34
  8
0
  6
CONTINUOUS
 62
    12
 10
10.313042760814341
 20
5.3385811932535301
 30
0.0
 11
9.8091305753009905
 21
5.1729134187847681
 31
0.0
  0
LINE
  5
C35
  8
0
  6
CONTINUOUS
 62
    12
 10
11.26932282174902
 20
5.3385811932535301
 30
0.0
 11
11.259765832519189
 21
5.1729134187847681
 31
0.0
  0
LINE
  5
C36
  8
0
  6
CONTINUOUS
 62
    12
 10
9.8091305753009905
 20
5.1729134187847681
 30
0.0
 11
9.7320660037790798
 21
5.1475774248924644
 31
0.0
  0
LINE
  5
C37
  8
0
  6
CONTINUOUS
 62
    12
 10
11.259765832519189
 20
5.1729134187847681
 30
0.0
 11
11.252887223853129
 21
5.1475774248924644
 31
0.0
  0
LINE
  5
C38
  8
0
  6
CONTINUOUS
 62
    12
 10
5.2220884387631097
 20
5.2220884387631186
 30
0.0
 11
5.0884325033917381
 21
5.088432503391747
 31
0.0
  0
LINE
  5
C39
  8
0
  6
CONTINUOUS
 62
    12
 10
7.8689441538800731
 20
5.2220884387631186
 30
0.0
 11
8.4911646200021114
 21
5.088432503391747
 31
0.0
  0
LINE
  5
C3A
  8
0
  6
CONTINUOUS
 62
    12
 10
9.7320660037790798
 20
5.1475774248924644
 30
0.0
 11
9.1185595962605923
 21
5.0633413716544906
 31
0.0
  0
LINE
  5
C3B
  8
0
  6
CONTINUOUS
 62
    12
 10
11.252887223853129
 20
5.1475774248924644
 30
0.0
 11
11.23001751334324
 21
5.0633413716544906
 31
0.0
  0
LINE
  5
C3C
  8
0
  6
CONTINUOUS
 62
    12
 10
5.0884325033917381
 20
5.088432503391747
 30
0.0
 11
5.0633413716544817
 21
5.0633413716544906
 31
0.0
  0
LINE
  5
C3D
  8
0
  6
CONTINUOUS
 62
    12
 10
8.4911646200021114
 20
5.088432503391747
 30
0.0
 11
9.1185595962605923
 21
5.0633413716544906
 31
0.0
  0
LINE
  5
C3E
  8
0
  6
CONTINUOUS
 62
    12
 10
5.0633413716544817
 20
5.0633413716544906
 30
0.0
 11
4.3888130564947812
 21
4.3888130564947883
 31
0.0
  0
LINE
  5
C3F
  8
0
  6
CONTINUOUS
 62
    12
 10
11.23001751334324
 20
5.0633413716544906
 30
0.0
 11
11.04688610220216
 21
4.3888130564947883
 31
0.0
  0
LINE
  5
C40
  8
0
  6
CONTINUOUS
 62
    12
 10
4.3888130564947812
 20
4.3888130564947883
 30
0.0
 11
3.8709865571331288
 21
3.8709865571331359
 31
0.0
  0
LINE
  5
C41
  8
0
  6
CONTINUOUS
 62
    12
 10
11.04688610220216
 20
4.3888130564947883
 30
0.0
 11
10.77277438868644
 21
3.8709865571331359
 31
0.0
  0
LINE
  5
C42
  8
0
  6
CONTINUOUS
 62
    12
 10
3.8709865571331288
 20
3.8709865571331359
 30
0.0
 11
4.0816432237694196
 21
3.690896321362759
 31
0.0
  0
LINE
  5
C43
  8
0
  6
CONTINUOUS
 62
    12
 10
10.77277438868644
 20
3.8709865571331359
 30
0.0
 11
10.677443533322091
 21
3.690896321362759
 31
0.0
  0
LINE
  5
C44
  8
0
  6
CONTINUOUS
 62
    12
 10
4.0816432237694196
 20
3.690896321362759
 30
0.0
 11
4.5950564115683408
 21
3.2519797491283451
 31
0.0
  0
LINE
  5
C45
  8
0
  6
CONTINUOUS
 62
    12
 10
10.677443533322091
 20
3.690896321362759
 30
0.0
 11
10.293740321452191
 21
3.2519797491283451
 31
0.0
  0
LINE
  5
C46
  8
0
  6
CONTINUOUS
 62
    12
 10
4.5950564115683408
 20
3.2519797491283451
 30
0.0
 11
4.8358089786345291
 21
3.1046085366312761
 31
0.0
  0
LINE
  5
C47
  8
0
  6
CONTINUOUS
 62
    12
 10
10.293740321452191
 20
3.2519797491283451
 30
0.0
 11
10.164907620320809
 21
3.1046085366312761
 31
0.0
  0
LINE
  5
C48
  8
0
  6
CONTINUOUS
 62
    12
 10
4.8358089786345291
 20
3.1046085366312761
 30
0.0
 11
5.397790473476733
 21
2.7606043363643571
 31
0.0
  0
LINE
  5
C49
  8
0
  6
CONTINUOUS
 62
    12
 10
10.164907620320809
 20
3.1046085366312761
 30
0.0
 11
9.6815213334919559
 21
2.7606043363643571
 31
0.0
  0
LINE
  5
C4A
  8
0
  6
CONTINUOUS
 62
    12
 10
5.397790473476733
 20
2.7606043363643571
 30
0.0
 11
5.6670571755101742
 21
2.6513251493196099
 31
0.0
  0
LINE
  5
C4B
  8
0
  6
CONTINUOUS
 62
    12
 10
9.6815213334919559
 20
2.7606043363643571
 30
0.0
 11
9.5279648931570726
 21
2.6513251493196099
 31
0.0
  0
LINE
  5
C4C
  8
0
  6
CONTINUOUS
 62
    12
 10
5.6670571755101742
 20
2.6513251493196099
 30
0.0
 11
6.2499218881535841
 21
2.4147753588192189
 31
0.0
  0
LINE
  5
C4D
  8
0
  6
CONTINUOUS
 62
    12
 10
9.5279648931570726
 20
2.6513251493196099
 30
0.0
 11
8.9531425981182267
 21
2.4147753588192189
 31
0.0
  0
LINE
  5
C4E
  8
0
  6
CONTINUOUS
 62
    12
 10
6.2499218881535841
 20
2.4147753588192189
 30
0.0
 11
6.5616195936739219
 21
2.347572403505378
 31
0.0
  0
LINE
  5
C4F
  8
0
  6
CONTINUOUS
 62
    12
 10
8.9531425981182267
 20
2.4147753588192189
 30
0.0
 11
8.7898376257266708
 21
2.347572403505378
 31
0.0
  0
LINE
  5
C50
  8
0
  6
CONTINUOUS
 62
    12
 10
8.1061327264718201
 20
2.2271013837866018
 30
0.0
 11
7.9774371757439217
 21
2.2044248105364228
 31
0.0
  0
LINE
  5
C51
  8
0
  6
CONTINUOUS
 62
    12
 10
7.9774371757439217
 20
2.2044248105364228
 30
0.0
 11
7.1203828244377414
 21
2.2271013837866018
 31
0.0
  0
LINE
  5
C52
  8
0
  6
CONTINUOUS
 62
    12
 10
6.5616195936739219
 20
2.347572403505378
 30
0.0
 11
7.1203828244377414
 21
2.2271013837866018
 31
0.0
  0
LINE
  5
C53
  8
0
  6
CONTINUOUS
 62
    12
 10
8.7898376257266708
 20
2.347572403505378
 30
0.0
 11
8.1061327264718201
 21
2.2271013837866018
 31
0.0
  0
ENDBLK
  5
C55
  8
0
  0
BLOCK
  8
0
  2
*U12
 70
     1
 10
0.0
 20
0.0
 30
0.0
  3
*U12
  1

  0
SOLID
  5
C57
  8
0
  6
CONTINUOUS
 62
    14
 10
8.8222356798165613
 20
8.8222356798165631
 30
0.0
 11
8.3625008409542207
 21
8.3625008409542207
 31
0.0
 12
9.3484568218760877
 22
8.3625008409542207
 32
0.0
 13
9.3484568218760877
 23
8.3625008409542207
 33
0.0
210
0.0
220
0.0
230
1.0
  0
SOLID
  5
C58
  8
0
  6
CONTINUOUS
 62
    14
 10
8.3625008409542207
 20
8.3625008409542207
 30
0.0
 11
8.0009301331315221
 21
8.0009301331315221
 31
0.0
 12
9.9377074091940667
 22
8.0009301331315221
 32
0.0
 13
9.9377074091940667
 23
8.0009301331315221
 33
0.0
  0
SOLID
  5
C59
  8
0
  6
CONTINUOUS
 62
    14
 10
-8.3625008409542207
 20
8.3625008409542207
 30
0.0
 11
-9.3484568218760877
 21
8.3625008409542207
 31
0.0
 12
-9.9377074091940667
 22
8.0009301331315221
 32
0.0
 13
-9.9377074091940667
 23
8.0009301331315221
 33
0.0
210
0.0
220
0.0
230
-1.0
  0
SOLID
  5
C5A
  8
0
  6
CONTINUOUS
 62
    14
 10
13.085418729976791
 20
7.9620276993582593
 30
0.0
 11
12.561679770775889
 21
7.7499421462694658
 31
0.0
 12
12.89188209665163
 22
7.7499421462694658
 32
0.0
 13
12.89188209665163
 23
7.7499421462694658
 33
0.0
210
0.0
220
0.0
230
1.0
  0
SOLID
  5
C5B
  8
0
  6
CONTINUOUS
 62
    14
 10
8.0009301331315221
 20
8.0009301331315221
 30
0.0
 11
7.7499421462694684
 21
7.7499421462694658
 31
0.0
 12
10.56974890682757
 22
7.7499421462694658
 32
0.0
 13
10.56974890682757
 23
7.7499421462694658
 33
0.0
  0
SOLID
  5
C5C
  8
0
  6
CONTINUOUS
 62
    14
 10
-8.0009301331315221
 20
8.0009301331315221
 30
0.0
 11
-9.9377074091940667
 21
8.0009301331315221
 31
0.0
 12
-10.56974890682757
 22
7.7499421462694658
 32
0.0
 13
-10.56974890682757
 23
7.7499421462694658
 33
0.0
210
0.0
220
0.0
230
-1.0
  0
SOLID
  5
C5D
  8
0
  6
CONTINUOUS
 62
    14
 10
12.561679770775889
 20
7.7499421462694658
 30
0.0
 11
12.502686364512639
 21
7.7260530523303323
 31
0.0
 12
12.8700823335521
 22
7.7260530523303323
 32
0.0
 13
12.8700823335521
 23
7.7260530523303323
 33
0.0
  0
SOLID
  5
C5E
  8
0
  6
CONTINUOUS
 62
    14
 10
-12.561679770775889
 20
7.7499421462694658
 30
0.0
 11
-12.89188209665163
 21
7.7499421462694658
 31
0.0
 12
-12.8700823335521
 22
7.7260530523303323
 32
0.0
 13
-12.8700823335521
 23
7.7260530523303323
 33
0.0
210
0.0
220
0.0
230
-1.0
  0
SOLID
  5
C5F
  8
0
  6
CONTINUOUS
 62
    14
 10
7.7499421462694684
 20
7.7499421462694658
 30
0.0
 11
7.6181573709567649
 21
7.6181573709567632
 31
0.0
 12
11.222873073477309
 22
7.6181573709567632
 32
0.0
 13
11.222873073477309
 23
7.6181573709567632
 33
0.0
210
0.0
220
0.0
230
1.0
  0
SOLID
  5
C60
  8
0
  6
CONTINUOUS
 62
    14
 10
-7.7499421462694684
 20
7.7499421462694658
 30
0.0
 11
-10.56974890682757
 21
7.7499421462694658
 31
0.0
 12
-11.222873073477309
 22
7.6181573709567632
 32
0.0
 13
-11.222873073477309
 23
7.6181573709567632
 33
0.0
210
0.0
220
0.0
230
-1.0
  0
SOLID
  5
C61
  8
0
  6
CONTINUOUS
 62
    14
 10
12.502686364512639
 20
7.7260530523303323
 30
0.0
 11
11.874647557689951
 21
7.6101021171157326
 31
0.0
 12
12.76427242191261
 22
7.6101021171157326
 32
0.0
 13
12.76427242191261
 23
7.6101021171157326
 33
0.0
210
0.0
220
0.0
230
1.0
  0
SOLID
  5
C62
  8
0
  6
CONTINUOUS
 62
    14
 10
-12.502686364512639
 20
7.7260530523303323
 30
0.0
 11
-12.8700823335521
 21
7.7260530523303323
 31
0.0
 12
-12.76427242191261
 22
7.6101021171157326
 32
0.0
 13
-12.76427242191261
 23
7.6101021171157326
 33
0.0
210
0.0
220
0.0
230
-1.0
  0
SOLID
  5
C63
  8
0
  6
CONTINUOUS
 62
    14
 10
7.6181573709567649
 20
7.6181573709567632
 30
0.0
 11
7.6101021171157353
 21
7.6101021171157326
 31
0.0
 12
11.874647557689951
 22
7.6101021171157326
 32
0.0
 13
11.874647557689951
 23
7.6101021171157326
 33
0.0
210
0.0
220
0.0
230
1.0
  0
SOLID
  5
C64
  8
0
  6
CONTINUOUS
 62
    14
 10
-7.6181573709567649
 20
7.6181573709567632
 30
0.0
 11
-11.222873073477309
 21
7.6181573709567632
 31
0.0
 12
-11.874647557689951
 22
7.6101021171157326
 32
0.0
 13
-11.874647557689951
 23
7.6101021171157326
 33
0.0
210
0.0
220
0.0
230
-1.0
  0
SOLID
  5
C65
  8
0
  6
CONTINUOUS
 62
    14
 10
7.6101021171157353
 20
7.6101021171157326
 30
0.0
 11
6.218177794586345
 21
6.2181777945863379
 31
0.0
 12
11.494085257806439
 22
6.2181777945863379
 32
0.0
 13
11.494085257806439
 23
6.2181777945863379
 33
0.0
210
0.0
220
0.0
230
1.0
  0
SOLID
  5
C66
  8
0
  6
CONTINUOUS
 62
    14
 10
-7.6101021171157353
 20
7.6101021171157326
 30
0.0
 11
-12.76427242191261
 21
7.6101021171157326
 31
0.0
 12
-11.494085257806439
 22
6.2181777945863379
 32
0.0
 13
-11.494085257806439
 23
6.2181777945863379
 33
0.0
210
0.0
220
0.0
230
-1.0
  0
SOLID
  5
C67
  8
0
  6
CONTINUOUS
 62
    14
 10
6.218177794586345
 20
6.2181777945863379
 30
0.0
 11
6.4575146422962408
 21
6.0146099189682518
 31
0.0
 12
11.30832134920213
 22
6.0146099189682518
 32
0.0
 13
11.30832134920213
 23
6.0146099189682518
 33
0.0
210
0.0
220
0.0
230
1.0
  0
SOLID
  5
C68
  8
0
  6
CONTINUOUS
 62
    14
 10
-6.218177794586345
 20
6.2181777945863379
 30
0.0
 11
-11.494085257806439
 21
6.2181777945863379
 31
0.0
 12
-11.30832134920213
 22
6.0146099189682518
 32
0.0
 13
-11.30832134920213
 23
6.0146099189682518
 33
0.0
210
0.0
220
0.0
230
-1.0
  0
SOLID
  5
C69
  8
0
  6
CONTINUOUS
 62
    14
 10
6.4575146422962408
 20
6.0146099189682518
 30
0.0
 11
6.7149184983836347
 21
5.7956751554289241
 31
0.0
 12
11.04354105273006
 22
5.7956751554289241
 32
0.0
 13
11.04354105273006
 23
5.7956751554289241
 33
0.0
210
0.0
220
0.0
230
1.0
  0
SOLID
  5
C6A
  8
0
  6
CONTINUOUS
 62
    14
 10
-6.4575146422962408
 20
6.0146099189682518
 30
0.0
 11
-11.30832134920213
 21
6.0146099189682518
 31
0.0
 12
-11.04354105273006
 22
5.7956751554289241
 32
0.0
 13
-11.04354105273006
 23
5.7956751554289241
 33
0.0
210
0.0
220
0.0
230
-1.0
  0
SOLID
  5
C6B
  8
0
  6
CONTINUOUS
 62
    14
 10
6.7149184983836347
 20
5.7956751554289241
 30
0.0
 11
6.988573162312
 21
5.6305491238886081
 31
0.0
 12
10.84383718259229
 22
5.6305491238886081
 32
0.0
 13
10.84383718259229
 23
5.6305491238886081
 33
0.0
210
0.0
220
0.0
230
1.0
  0
SOLID
  5
C6C
  8
0
  6
CONTINUOUS
 62
    14
 10
-6.7149184983836347
 20
5.7956751554289241
 30
0.0
 11
-11.04354105273006
 21
5.7956751554289241
 31
0.0
 12
-10.84383718259229
 22
5.6305491238886081
 32
0.0
 13
-10.84383718259229
 23
5.6305491238886081
 33
0.0
210
0.0
220
0.0
230
-1.0
  0
SOLID
  5
C6D
  8
0
  6
CONTINUOUS
 62
    14
 10
6.988573162312
 20
5.6305491238886081
 30
0.0
 11
7.2708040518988462
 21
5.4602481098055149
 31
0.0
 12
10.53423184990452
 22
5.4602481098055149
 32
0.0
 13
10.53423184990452
 23
5.4602481098055149
 33
0.0
210
0.0
220
0.0
230
1.0
  0
SOLID
  5
C6E
  8
0
  6
CONTINUOUS
 62
    14
 10
-6.988573162312
 20
5.6305491238886081
 30
0.0
 11
-10.84383718259229
 21
5.6305491238886081
 31
0.0
 12
-10.53423184990452
 22
5.4602481098055149
 32
0.0
 13
-10.53423184990452
 23
5.4602481098055149
 33
0.0
210
0.0
220
0.0
230
-1.0
  0
SOLID
  5
C6F
  8
0
  6
CONTINUOUS
 62
    14
 10
7.2708040518988462
 20
5.4602481098055149
 30
0.0
 11
7.576371579581525
 21
5.3385811932535301
 31
0.0
 12
10.313042760814341
 22
5.3385811932535301
 32
0.0
 13
10.313042760814341
 23
5.3385811932535301
 33
0.0
  0
SOLID
  5
C70
  8
0
  6
CONTINUOUS
 62
    14
 10
-7.2708040518988462
 20
5.4602481098055149
 30
0.0
 11
-10.53423184990452
 21
5.4602481098055149
 31
0.0
 12
-10.313042760814341
 22
5.3385811932535301
 32
0.0
 13
-10.313042760814341
 23
5.3385811932535301
 33
0.0
210
0.0
220
0.0
230
-1.0
  0
SOLID
  5
C71
  8
0
  6
CONTINUOUS
 62
    14
 10
7.576371579581525
 20
5.3385811932535301
 30
0.0
 11
7.8689441538800731
 21
5.2220884387631177
 31
0.0
 12
9.9587063867067602
 22
5.2220884387631177
 32
0.0
 13
9.9587063867067602
 23
5.2220884387631177
 33
0.0
210
0.0
220
0.0
230
1.0
  0
SOLID
  5
C72
  8
0
  6
CONTINUOUS
 62
    14
 10
-7.576371579581525
 20
5.3385811932535301
 30
0.0
 11
-10.313042760814341
 21
5.3385811932535301
 31
0.0
 12
-9.9587063867067602
 22
5.2220884387631177
 32
0.0
 13
-9.9587063867067602
 23
5.2220884387631177
 33
0.0
210
0.0
220
0.0
230
-1.0
  0
SOLID
  5
C73
  8
0
  6
CONTINUOUS
 62
    14
 10
7.8689441538800731
 20
5.2220884387631177
 30
0.0
 11
8.2158219610870873
 21
5.1475774248924644
 31
0.0
 12
9.7320660037790798
 22
5.1475774248924644
 32
0.0
 13
9.7320660037790798
 23
5.1475774248924644
 33
0.0
210
0.0
220
0.0
230
1.0
  0
SOLID
  5
C74
  8
0
  6
CONTINUOUS
 62
    14
 10
-7.8689441538800731
 20
5.2220884387631177
 30
0.0
 11
-9.9587063867067602
 21
5.2220884387631177
 31
0.0
 12
-9.7320660037790798
 22
5.1475774248924644
 32
0.0
 13
-9.7320660037790798
 23
5.1475774248924644
 33
0.0
210
0.0
220
0.0
230
-1.0
  0
SOLID
  5
C75
  8
0
  6
CONTINUOUS
 62
    14
 10
-8.4911646200021114
 20
5.0884325033917461
 30
0.0
 11
-9.3013028457479372
 21
5.0884325033917461
 31
0.0
 12
-9.1185595962605941
 22
5.0633413716544906
 32
0.0
 13
-9.1185595962605941
 23
5.0633413716544906
 33
0.0
210
0.0
220
0.0
230
-1.0
  0
SOLID
  5
C76
  8
0
  6
CONTINUOUS
 62
    14
 10
8.2158219610870873
 20
5.1475774248924644
 30
0.0
 11
8.4911646200021114
 21
5.0884325033917461
 31
0.0
 12
9.3013028457479372
 22
5.0884325033917461
 32
0.0
 13
9.3013028457479372
 23
5.0884325033917461
 33
0.0
210
0.0
220
0.0
230
1.0
  0
SOLID
  5
C77
  8
0
  6
CONTINUOUS
 62
    14
 10
-8.2158219610870873
 20
5.1475774248924644
 30
0.0
 11
-9.7320660037790798
 21
5.1475774248924644
 31
0.0
 12
-9.3013028457479372
 22
5.0884325033917461
 32
0.0
 13
-9.3013028457479372
 23
5.0884325033917461
 33
0.0
210
0.0
220
0.0
230
-1.0
  0
LINE
  5
C78
  8
0
  6
CONTINUOUS
 62
    14
 10
8.8222356798165613
 20
8.8222356798165631
 30
0.0
 11
8.3625008409542207
 21
8.3625008409542207
 31
0.0
  0
LINE
  5
C79
  8
0
  6
CONTINUOUS
 62
    14
 10
9.3484568218760877
 20
8.3625008409542207
 30
0.0
 11
8.8222356798165613
 21
8.8222356798165631
 31
0.0
  0
LINE
  5
C7A
  8
0
  6
CONTINUOUS
 62
    14
 10
8.3625008409542207
 20
8.3625008409542207
 30
0.0
 11
8.0009301331315221
 21
8.0009301331315221
 31
0.0
  0
LINE
  5
C7B
  8
0
  6
CONTINUOUS
 62
    14
 10
9.3484568218760877
 20
8.3625008409542207
 30
0.0
 11
9.9377074091940667
 21
8.0009301331315221
 31
0.0
  0
LINE
  5
C7C
  8
0
  6
CONTINUOUS
 62
    14
 10
13.085418729976791
 20
7.9620276993582593
 30
0.0
 11
12.561679770775889
 21
7.7499421462694658
 31
0.0
  0
LINE
  5
C7D
  8
0
  6
CONTINUOUS
 62
    14
 10
12.89188209665163
 20
7.7499421462694658
 30
0.0
 11
13.085418729976791
 21
7.9620276993582593
 31
0.0
  0
LINE
  5
C7E
  8
0
  6
CONTINUOUS
 62
    14
 10
8.0009301331315221
 20
8.0009301331315221
 30
0.0
 11
7.7499421462694684
 21
7.7499421462694658
 31
0.0
  0
LINE
  5
C7F
  8
0
  6
CONTINUOUS
 62
    14
 10
9.9377074091940667
 20
8.0009301331315221
 30
0.0
 11
10.56974890682757
 21
7.7499421462694658
 31
0.0
  0
LINE
  5
C80
  8
0
  6
CONTINUOUS
 62
    14
 10
12.561679770775889
 20
7.7499421462694658
 30
0.0
 11
12.502686364512639
 21
7.7260530523303323
 31
0.0
  0
LINE
  5
C81
  8
0
  6
CONTINUOUS
 62
    14
 10
12.89188209665163
 20
7.7499421462694658
 30
0.0
 11
12.8700823335521
 21
7.7260530523303323
 31
0.0
  0
LINE
  5
C82
  8
0
  6
CONTINUOUS
 62
    14
 10
7.7499421462694684
 20
7.7499421462694658
 30
0.0
 11
7.6181573709567649
 21
7.6181573709567632
 31
0.0
  0
LINE
  5
C83
  8
0
  6
CONTINUOUS
 62
    14
 10
10.56974890682757
 20
7.7499421462694658
 30
0.0
 11
11.222873073477309
 21
7.6181573709567632
 31
0.0
  0
LINE
  5
C84
  8
0
  6
CONTINUOUS
 62
    14
 10
12.502686364512639
 20
7.7260530523303323
 30
0.0
 11
11.874647557689951
 21
7.6101021171157326
 31
0.0
  0
LINE
  5
C85
  8
0
  6
CONTINUOUS
 62
    14
 10
12.8700823335521
 20
7.7260530523303323
 30
0.0
 11
12.76427242191261
 21
7.6101021171157326
 31
0.0
  0
LINE
  5
C86
  8
0
  6
CONTINUOUS
 62
    14
 10
7.6181573709567649
 20
7.6181573709567632
 30
0.0
 11
7.6101021171157353
 21
7.6101021171157326
 31
0.0
  0
LINE
  5
C87
  8
0
  6
CONTINUOUS
 62
    14
 10
11.222873073477309
 20
7.6181573709567632
 30
0.0
 11
11.874647557689951
 21
7.6101021171157326
 31
0.0
  0
LINE
  5
C88
  8
0
  6
CONTINUOUS
 62
    14
 10
7.6101021171157353
 20
7.6101021171157326
 30
0.0
 11
6.218177794586345
 21
6.2181777945863379
 31
0.0
  0
LINE
  5
C89
  8
0
  6
CONTINUOUS
 62
    14
 10
12.76427242191261
 20
7.6101021171157326
 30
0.0
 11
11.494085257806439
 21
6.2181777945863379
 31
0.0
  0
LINE
  5
C8A
  8
0
  6
CONTINUOUS
 62
    14
 10
6.218177794586345
 20
6.2181777945863379
 30
0.0
 11
6.4575146422962408
 21
6.0146099189682518
 31
0.0
  0
LINE
  5
C8B
  8
0
  6
CONTINUOUS
 62
    14
 10
11.494085257806439
 20
6.2181777945863379
 30
0.0
 11
11.30832134920213
 21
6.0146099189682518
 31
0.0
  0
LINE
  5
C8C
  8
0
  6
CONTINUOUS
 62
    14
 10
6.4575146422962408
 20
6.0146099189682518
 30
0.0
 11
6.7149184983836347
 21
5.7956751554289241
 31
0.0
  0
LINE
  5
C8D
  8
0
  6
CONTINUOUS
 62
    14
 10
11.30832134920213
 20
6.0146099189682518
 30
0.0
 11
11.04354105273006
 21
5.7956751554289241
 31
0.0
  0
LINE
  5
C8E
  8
0
  6
CONTINUOUS
 62
    14
 10
6.7149184983836347
 20
5.7956751554289241
 30
0.0
 11
6.988573162312
 21
5.6305491238886081
 31
0.0
  0
LINE
  5
C8F
  8
0
  6
CONTINUOUS
 62
    14
 10
11.04354105273006
 20
5.7956751554289241
 30
0.0
 11
10.84383718259229
 21
5.6305491238886081
 31
0.0
  0
LINE
  5
C90
  8
0
  6
CONTINUOUS
 62
    14
 10
6.988573162312
 20
5.6305491238886081
 30
0.0
 11
7.2708040518988462
 21
5.4602481098055149
 31
0.0
  0
LINE
  5
C91
  8
0
  6
CONTINUOUS
 62
    14
 10
10.84383718259229
 20
5.6305491238886081
 30
0.0
 11
10.53423184990452
 21
5.4602481098055149
 31
0.0
  0
LINE
  5
C92
  8
0
  6
CONTINUOUS
 62
    14
 10
7.2708040518988462
 20
5.4602481098055149
 30
0.0
 11
7.576371579581525
 21
5.3385811932535301
 31
0.0
  0
LINE
  5
C93
  8
0
  6
CONTINUOUS
 62
    14
 10
10.53423184990452
 20
5.4602481098055149
 30
0.0
 11
10.313042760814341
 21
5.3385811932535301
 31
0.0
  0
LINE
  5
C94
  8
0
  6
CONTINUOUS
 62
    14
 10
7.576371579581525
 20
5.3385811932535301
 30
0.0
 11
7.8689441538800731
 21
5.2220884387631177
 31
0.0
  0
LINE
  5
C95
  8
0
  6
CONTINUOUS
 62
    14
 10
10.313042760814341
 20
5.3385811932535301
 30
0.0
 11
9.9587063867067602
 21
5.2220884387631177
 31
0.0
  0
LINE
  5
C96
  8
0
  6
CONTINUOUS
 62
    14
 10
7.8689441538800731
 20
5.2220884387631177
 30
0.0
 11
8.2158219610870873
 21
5.1475774248924644
 31
0.0
  0
LINE
  5
C97
  8
0
  6
CONTINUOUS
 62
    14
 10
9.9587063867067602
 20
5.2220884387631177
 30
0.0
 11
9.7320660037790798
 21
5.1475774248924644
 31
0.0
  0
LINE
  5
C98
  8
0
  6
CONTINUOUS
 62
    14
 10
9.3013028457479372
 20
5.0884325033917461
 30
0.0
 11
9.1185595962605941
 21
5.0633413716544906
 31
0.0
  0
LINE
  5
C99
  8
0
  6
CONTINUOUS
 62
    14
 10
9.1185595962605941
 20
5.0633413716544906
 30
0.0
 11
8.4911646200021114
 21
5.0884325033917461
 31
0.0
  0
LINE
  5
C9A
  8
0
  6
CONTINUOUS
 62
    14
 10
8.2158219610870873
 20
5.1475774248924644
 30
0.0
 11
8.4911646200021114
 21
5.0884325033917461
 31
0.0
  0
LINE
  5
C9B
  8
0
  6
CONTINUOUS
 62
    14
 10
9.7320660037790798
 20
5.1475774248924644
 30
0.0
 11
9.3013028457479372
 21
5.0884325033917461
 31
0.0
  0
ENDBLK
  5
C9D
  8
0
  0
BLOCK
  8
0
  2
*U13
 70
     1
 10
0.0
 20
0.0
 30
0.0
  3
*U13
  1

  0
SOLID
  5
C9F
  8
0
  6
CONTINUOUS
 62
    16
 10
10.20232101151389
 20
10.20232101151389
 30
0.0
 11
9.6321228170441415
 21
9.6321228170441362
 31
0.0
 12
10.860000856733871
 22
9.6321228170441362
 32
0.0
 13
10.860000856733871
 23
9.6321228170441362
 33
0.0
210
0.0
220
0.0
230
1.0
  0
SOLID
  5
CA0
  8
0
  6
CONTINUOUS
 62
    16
 10
16.617009357883859
 20
9.5459415460183816
 30
0.0
 11
16.561241606933351
 21
9.5009940400166002
 31
0.0
 12
16.572417931430401
 22
9.5009940400166002
 32
0.0
 13
16.572417931430401
 23
9.5009940400166002
 33
0.0
  0
SOLID
  5
CA1
  8
0
  6
CONTINUOUS
 62
    16
 10
9.6321228170441415
 20
9.6321228170441362
 30
0.0
 11
9.5009940400166037
 21
9.5009940400166002
 31
0.0
 12
11.06432724123632
 22
9.5009940400166002
 32
0.0
 13
11.06432724123632
 23
9.5009940400166002
 33
0.0
210
0.0
220
0.0
230
1.0
  0
SOLID
  5
CA2
  8
0
  6
CONTINUOUS
 62
    16
 10
-9.6321228170441415
 20
9.6321228170441362
 30
0.0
 11
-10.860000856733871
 21
9.6321228170441362
 31
0.0
 12
-11.06432724123632
 22
9.5009940400166002
 32
0.0
 13
-11.06432724123632
 23
9.5009940400166002
 33
0.0
210
0.0
220
0.0
230
-1.0
  0
SOLID
  5
CA3
  8
0
  6
CONTINUOUS
 62
    16
 10
9.5009940400166037
 20
9.5009940400166002
 30
0.0
 11
9.9057485983697635
 21
9.1667314569293907
 31
0.0
 12
11.585179083409139
 22
9.1667314569293907
 32
0.0
 13
11.585179083409139
 23
9.1667314569293907
 33
0.0
210
0.0
220
0.0
230
1.0
  0
SOLID
  5
CA4
  8
0
  6
CONTINUOUS
 62
    16
 10
-9.5009940400166037
 20
9.5009940400166002
 30
0.0
 11
-11.06432724123632
 21
9.5009940400166002
 31
0.0
 12
-11.585179083409139
 22
9.1667314569293907
 32
0.0
 13
-11.585179083409139
 23
9.1667314569293907
 33
0.0
210
0.0
220
0.0
230
-1.0
  0
SOLID
  5
CA5
  8
0
  6
CONTINUOUS
 62
    16
 10
16.561241606933351
 20
9.5009940400166002
 30
0.0
 11
16.06333673174764
 21
9.0996943285474465
 31
0.0
 12
16.174297364539211
 22
9.0996943285474465
 32
0.0
 13
16.174297364539211
 23
9.0996943285474465
 33
0.0
210
0.0
220
0.0
230
1.0
  0
SOLID
  5
CA6
  8
0
  6
CONTINUOUS
 62
    16
 10
-16.561241606933351
 20
9.5009940400166002
 30
0.0
 11
-16.572417931430401
 21
9.5009940400166002
 31
0.0
 12
-16.174297364539211
 22
9.0996943285474465
 32
0.0
 13
-16.174297364539211
 23
9.0996943285474465
 33
0.0
210
0.0
220
0.0
230
-1.0
  0
SOLID
  5
CA7
  8
0
  6
CONTINUOUS
 62
    16
 10
16.06333673174764
 20
9.0996943285474465
 30
0.0
 11
15.758693106110769
 21
8.9458947136586264
 31
0.0
 12
16.021716168696791
 22
8.9458947136586264
 32
0.0
 13
16.021716168696791
 23
8.9458947136586264
 33
0.0
210
0.0
220
0.0
230
1.0
  0
SOLID
  5
CA8
  8
0
  6
CONTINUOUS
 62
    16
 10
-16.06333673174764
 20
9.0996943285474465
 30
0.0
 11
-16.174297364539211
 21
9.0996943285474465
 31
0.0
 12
-16.021716168696791
 22
8.9458947136586264
 32
0.0
 13
-16.021716168696791
 23
8.9458947136586264
 33
0.0
210
0.0
220
0.0
230
-1.0
  0
SOLID
  5
CA9
  8
0
  6
CONTINUOUS
 62
    16
 10
9.9057485983697635
 20
9.1667314569293907
 30
0.0
 11
10.217549966827031
 21
8.9092333542404116
 31
0.0
 12
12.157967336882701
 22
8.9092333542404116
 32
0.0
 13
12.157967336882701
 23
8.9092333542404116
 33
0.0
210
0.0
220
0.0
230
1.0
  0
SOLID
  5
CAA
  8
0
  6
CONTINUOUS
 62
    16
 10
-9.9057485983697635
 20
9.1667314569293907
 30
0.0
 11
-11.585179083409139
 21
9.1667314569293907
 31
0.0
 12
-12.157967336882701
 22
8.9092333542404116
 32
0.0
 13
-12.157967336882701
 23
8.9092333542404116
 33
0.0
210
0.0
220
0.0
230
-1.0
  0
SOLID
  5
CAB
  8
0
  6
CONTINUOUS
 62
    16
 10
10.217549966827031
 20
8.9092333542404116
 30
0.0
 11
10.37241459348957
 21
8.8202876121473324
 31
0.0
 12
12.35582151808007
 22
8.8202876121473324
 32
0.0
 13
12.35582151808007
 23
8.8202876121473324
 33
0.0
  0
SOLID
  5
CAC
  8
0
  6
CONTINUOUS
 62
    16
 10
-10.217549966827031
 20
8.9092333542404116
 30
0.0
 11
-12.157967336882701
 21
8.9092333542404116
 31
0.0
 12
-12.35582151808007
 22
8.8202876121473324
 32
0.0
 13
-12.35582151808007
 23
8.8202876121473324
 33
0.0
210
0.0
220
0.0
230
-1.0
  0
SOLID
  5
CAD
  8
0
  6
CONTINUOUS
 62
    16
 10
15.758693106110769
 20
8.9458947136586264
 30
0.0
 11
15.41906175951941
 21
8.7744315156326671
 31
0.0
 12
15.7637706166231
 22
8.7744315156326671
 32
0.0
 13
15.7637706166231
 23
8.7744315156326671
 33
0.0
210
0.0
220
0.0
230
1.0
  0
SOLID
  5
CAE
  8
0
  6
CONTINUOUS
 62
    16
 10
-15.758693106110769
 20
8.9458947136586264
 30
0.0
 11
-16.021716168696791
 21
8.9458947136586264
 31
0.0
 12
-15.7637706166231
 22
8.7744315156326671
 32
0.0
 13
-15.7637706166231
 23
8.7744315156326671
 33
0.0
210
0.0
220
0.0
230
-1.0
  0
SOLID
  5
CAF
  8
0
  6
CONTINUOUS
 62
    16
 10
10.37241459348957
 20
8.8202876121473324
 30
0.0
 11
10.750183642407141
 21
8.6033178036126241
 31
0.0
 12
13.14851258033306
 22
8.6033178036126241
 32
0.0
 13
13.14851258033306
 23
8.6033178036126241
 33
0.0
210
0.0
220
0.0
230
1.0
  0
SOLID
  5
CB0
  8
0
  6
CONTINUOUS
 62
    16
 10
-10.37241459348957
 20
8.8202876121473324
 30
0.0
 11
-12.35582151808007
 21
8.8202876121473324
 31
0.0
 12
-13.14851258033306
 22
8.6033178036126241
 32
0.0
 13
-13.14851258033306
 23
8.6033178036126241
 33
0.0
210
0.0
220
0.0
230
-1.0
  0
SOLID
  5
CB1
  8
0
  6
CONTINUOUS
 62
    16
 10
15.41906175951941
 20
8.7744315156326671
 30
0.0
 11
14.703760410211469
 21
8.5800360532535276
 31
0.0
 12
15.47132625864247
 22
8.5800360532535276
 32
0.0
 13
15.47132625864247
 23
8.5800360532535276
 33
0.0
210
0.0
220
0.0
230
1.0
  0
SOLID
  5
CB2
  8
0
  6
CONTINUOUS
 62
    16
 10
-15.41906175951941
 20
8.7744315156326671
 30
0.0
 11
-15.7637706166231
 21
8.7744315156326671
 31
0.0
 12
-15.47132625864247
 22
8.5800360532535276
 32
0.0
 13
-15.47132625864247
 23
8.5800360532535276
 33
0.0
210
0.0
220
0.0
230
-1.0
  0
SOLID
  5
CB3
  8
0
  6
CONTINUOUS
 62
    16
 10
14.703760410211469
 20
8.5800360532535276
 30
0.0
 11
13.93916675336259
 21
8.5224145491655712
 31
0.0
 12
15.38464170560483
 22
8.5224145491655712
 32
0.0
 13
15.38464170560483
 23
8.5224145491655712
 33
0.0
210
0.0
220
0.0
230
1.0
  0
SOLID
  5
CB4
  8
0
  6
CONTINUOUS
 62
    16
 10
-14.703760410211469
 20
8.5800360532535276
 30
0.0
 11
-15.47132625864247
 21
8.5800360532535276
 31
0.0
 12
-15.38464170560483
 22
8.5224145491655712
 32
0.0
 13
-15.38464170560483
 23
8.5224145491655712
 33
0.0
210
0.0
220
0.0
230
-1.0
  0
SOLID
  5
CB5
  8
0
  6
CONTINUOUS
 62
    16
 10
10.750183642407141
 20
8.6033178036126241
 30
0.0
 11
10.89104538576767
 21
8.5224145491655712
 31
0.0
 12
13.93916675336259
 22
8.5224145491655712
 32
0.0
 13
13.93916675336259
 23
8.5224145491655712
 33
0.0
  0
SOLID
  5
CB6
  8
0
  6
CONTINUOUS
 62
    16
 10
-10.750183642407141
 20
8.6033178036126241
 30
0.0
 11
-13.14851258033306
 21
8.6033178036126241
 31
0.0
 12
-13.93916675336259
 22
8.5224145491655712
 32
0.0
 13
-13.93916675336259
 23
8.5224145491655712
 33
0.0
210
0.0
220
0.0
230
-1.0
  0
SOLID
  5
CB7
  8
0
  6
CONTINUOUS
 62
    16
 10
10.89104538576767
 20
8.5224145491655712
 30
0.0
 11
10.97292234094706
 21
8.4753889197775099
 31
0.0
 12
15.313897358865891
 22
8.4753889197775099
 32
0.0
 13
15.313897358865891
 23
8.4753889197775099
 33
0.0
210
0.0
220
0.0
230
1.0
  0
SOLID
  5
CB8
  8
0
  6
CONTINUOUS
 62
    16
 10
-10.89104538576767
 20
8.5224145491655712
 30
0.0
 11
-15.38464170560483
 21
8.5224145491655712
 31
0.0
 12
-15.313897358865891
 22
8.4753889197775099
 32
0.0
 13
-15.313897358865891
 23
8.4753889197775099
 33
0.0
210
0.0
220
0.0
230
-1.0
  0
SOLID
  5
CB9
  8
0
  6
CONTINUOUS
 62
    16
 10
10.97292234094706
 20
8.4753889197775099
 30
0.0
 11
11.020143101409509
 21
8.4482679065929815
 31
0.0
 12
15.24743403948646
 22
8.4482679065929815
 32
0.0
 13
15.24743403948646
 23
8.4482679065929815
 33
0.0
210
0.0
220
0.0
230
1.0
  0
SOLID
  5
CBA
  8
0
  6
CONTINUOUS
 62
    16
 10
-10.97292234094706
 20
8.4753889197775099
 30
0.0
 11
-15.313897358865891
 21
8.4753889197775099
 31
0.0
 12
-15.24743403948646
 22
8.4482679065929815
 32
0.0
 13
-15.24743403948646
 23
8.4482679065929815
 33
0.0
210
0.0
220
0.0
230
-1.0
  0
SOLID
  5
CBB
  8
0
  6
CONTINUOUS
 62
    16
 10
11.020143101409509
 20
8.4482679065929815
 30
0.0
 11
11.835702646230111
 21
8.1505203542444704
 31
0.0
 12
14.517767690683909
 22
8.1505203542444704
 32
0.0
 13
14.517767690683909
 23
8.1505203542444704
 33
0.0
210
0.0
220
0.0
230
1.0
  0
SOLID
  5
CBC
  8
0
  6
CONTINUOUS
 62
    16
 10
-11.020143101409509
 20
8.4482679065929815
 30
0.0
 11
-15.24743403948646
 21
8.4482679065929815
 31
0.0
 12
-14.517767690683909
 22
8.1505203542444704
 32
0.0
 13
-14.517767690683909
 23
8.1505203542444704
 33
0.0
210
0.0
220
0.0
230
-1.0
  0
SOLID
  5
CBD
  8
0
  6
CONTINUOUS
 62
    16
 10
11.835702646230111
 20
8.1505203542444704
 30
0.0
 11
11.881316414222299
 21
8.1338675079142195
 31
0.0
 12
14.432857431065379
 22
8.1338675079142195
 32
0.0
 13
14.432857431065379
 23
8.1338675079142195
 33
0.0
  0
SOLID
  5
CBE
  8
0
  6
CONTINUOUS
 62
    16
 10
-11.835702646230111
 20
8.1505203542444704
 30
0.0
 11
-14.517767690683909
 21
8.1505203542444704
 31
0.0
 12
-14.432857431065379
 22
8.1338675079142195
 32
0.0
 13
-14.432857431065379
 23
8.1338675079142195
 33
0.0
210
0.0
220
0.0
230
-1.0
  0
SOLID
  5
CBF
  8
0
  6
CONTINUOUS
 62
    16
 10
-12.739784363690401
 20
7.9824028995694301
 30
0.0
 11
-13.660563075942839
 21
7.9824028995694301
 31
0.0
 12
-12.771608824586281
 22
7.9767879205729919
 32
0.0
 13
-12.771608824586281
 23
7.9767879205729919
 33
0.0
210
0.0
220
0.0
230
-1.0
  0
SOLID
  5
CC0
  8
0
  6
CONTINUOUS
 62
    16
 10
11.881316414222299
 20
8.1338675079142195
 30
0.0
 11
12.739784363690401
 21
7.9824028995694301
 31
0.0
 12
13.660563075942839
 22
7.9824028995694301
 32
0.0
 13
13.660563075942839
 23
7.9824028995694301
 33
0.0
210
0.0
220
0.0
230
1.0
  0
SOLID
  5
CC1
  8
0
  6
CONTINUOUS
 62
    16
 10
-11.881316414222299
 20
8.1338675079142195
 30
0.0
 11
-14.432857431065379
 21
8.1338675079142195
 31
0.0
 12
-13.660563075942839
 22
7.9824028995694301
 32
0.0
 13
-13.660563075942839
 23
7.9824028995694301
 33
0.0
210
0.0
220
0.0
230
-1.0
  0
LINE
  5
CC2
  8
0
  6
CONTINUOUS
 62
    16
 10
10.20232101151389
 20
10.20232101151389
 30
0.0
 11
9.6321228170441415
 21
9.6321228170441362
 31
0.0
  0
LINE
  5
CC3
  8
0
  6
CONTINUOUS
 62
    16
 10
10.860000856733871
 20
9.6321228170441362
 30
0.0
 11
10.20232101151389
 21
10.20232101151389
 31
0.0
  0
LINE
  5
CC4
  8
0
  6
CONTINUOUS
 62
    16
 10
16.617009357883859
 20
9.5459415460183816
 30
0.0
 11
16.561241606933351
 21
9.5009940400166002
 31
0.0
  0
LINE
  5
CC5
  8
0
  6
CONTINUOUS
 62
    16
 10
16.572417931430401
 20
9.5009940400166002
 30
0.0
 11
16.617009357883859
 21
9.5459415460183816
 31
0.0
  0
LINE
  5
CC6
  8
0
  6
CONTINUOUS
 62
    16
 10
9.6321228170441415
 20
9.6321228170441362
 30
0.0
 11
9.5009940400166037
 21
9.5009940400166002
 31
0.0
  0
LINE
  5
CC7
  8
0
  6
CONTINUOUS
 62
    16
 10
10.860000856733871
 20
9.6321228170441362
 30
0.0
 11
11.06432724123632
 21
9.5009940400166002
 31
0.0
  0
LINE
  5
CC8
  8
0
  6
CONTINUOUS
 62
    16
 10
9.5009940400166037
 20
9.5009940400166002
 30
0.0
 11
9.9057485983697635
 21
9.1667314569293907
 31
0.0
  0
LINE
  5
CC9
  8
0
  6
CONTINUOUS
 62
    16
 10
11.06432724123632
 20
9.5009940400166002
 30
0.0
 11
11.585179083409139
 21
9.1667314569293907
 31
0.0
  0
LINE
  5
CCA
  8
0
  6
CONTINUOUS
 62
    16
 10
16.561241606933351
 20
9.5009940400166002
 30
0.0
 11
16.06333673174764
 21
9.0996943285474465
 31
0.0
  0
LINE
  5
CCB
  8
0
  6
CONTINUOUS
 62
    16
 10
16.572417931430401
 20
9.5009940400166002
 30
0.0
 11
16.174297364539211
 21
9.0996943285474465
 31
0.0
  0
LINE
  5
CCC
  8
0
  6
CONTINUOUS
 62
    16
 10
16.06333673174764
 20
9.0996943285474465
 30
0.0
 11
15.758693106110769
 21
8.9458947136586264
 31
0.0
  0
LINE
  5
CCD
  8
0
  6
CONTINUOUS
 62
    16
 10
16.174297364539211
 20
9.0996943285474465
 30
0.0
 11
16.021716168696791
 21
8.9458947136586264
 31
0.0
  0
LINE
  5
CCE
  8
0
  6
CONTINUOUS
 62
    16
 10
9.9057485983697635
 20
9.1667314569293907
 30
0.0
 11
10.217549966827031
 21
8.9092333542404116
 31
0.0
  0
LINE
  5
CCF
  8
0
  6
CONTINUOUS
 62
    16
 10
11.585179083409139
 20
9.1667314569293907
 30
0.0
 11
12.157967336882701
 21
8.9092333542404116
 31
0.0
  0
LINE
  5
CD0
  8
0
  6
CONTINUOUS
 62
    16
 10
10.217549966827031
 20
8.9092333542404116
 30
0.0
 11
10.37241459348957
 21
8.8202876121473324
 31
0.0
  0
LINE
  5
CD1
  8
0
  6
CONTINUOUS
 62
    16
 10
12.157967336882701
 20
8.9092333542404116
 30
0.0
 11
12.35582151808007
 21
8.8202876121473324
 31
0.0
  0
LINE
  5
CD2
  8
0
  6
CONTINUOUS
 62
    16
 10
15.758693106110769
 20
8.9458947136586264
 30
0.0
 11
15.41906175951941
 21
8.7744315156326671
 31
0.0
  0
LINE
  5
CD3
  8
0
  6
CONTINUOUS
 62
    16
 10
16.021716168696791
 20
8.9458947136586264
 30
0.0
 11
15.7637706166231
 21
8.7744315156326671
 31
0.0
  0
LINE
  5
CD4
  8
0
  6
CONTINUOUS
 62
    16
 10
10.37241459348957
 20
8.8202876121473324
 30
0.0
 11
10.750183642407141
 21
8.6033178036126241
 31
0.0
  0
LINE
  5
CD5
  8
0
  6
CONTINUOUS
 62
    16
 10
12.35582151808007
 20
8.8202876121473324
 30
0.0
 11
13.14851258033306
 21
8.6033178036126241
 31
0.0
  0
LINE
  5
CD6
  8
0
  6
CONTINUOUS
 62
    16
 10
15.41906175951941
 20
8.7744315156326671
 30
0.0
 11
14.703760410211469
 21
8.5800360532535276
 31
0.0
  0
LINE
  5
CD7
  8
0
  6
CONTINUOUS
 62
    16
 10
15.7637706166231
 20
8.7744315156326671
 30
0.0
 11
15.47132625864247
 21
8.5800360532535276
 31
0.0
  0
LINE
  5
CD8
  8
0
  6
CONTINUOUS
 62
    16
 10
14.703760410211469
 20
8.5800360532535276
 30
0.0
 11
13.93916675336259
 21
8.5224145491655712
 31
0.0
  0
LINE
  5
CD9
  8
0
  6
CONTINUOUS
 62
    16
 10
15.47132625864247
 20
8.5800360532535276
 30
0.0
 11
15.38464170560483
 21
8.5224145491655712
 31
0.0
  0
LINE
  5
CDA
  8
0
  6
CONTINUOUS
 62
    16
 10
10.750183642407141
 20
8.6033178036126241
 30
0.0
 11
10.89104538576767
 21
8.5224145491655712
 31
0.0
  0
LINE
  5
CDB
  8
0
  6
CONTINUOUS
 62
    16
 10
13.14851258033306
 20
8.6033178036126241
 30
0.0
 11
13.93916675336259
 21
8.5224145491655712
 31
0.0
  0
LINE
  5
CDC
  8
0
  6
CONTINUOUS
 62
    16
 10
10.89104538576767
 20
8.5224145491655712
 30
0.0
 11
10.97292234094706
 21
8.4753889197775099
 31
0.0
  0
LINE
  5
CDD
  8
0
  6
CONTINUOUS
 62
    16
 10
15.38464170560483
 20
8.5224145491655712
 30
0.0
 11
15.313897358865891
 21
8.4753889197775099
 31
0.0
  0
LINE
  5
CDE
  8
0
  6
CONTINUOUS
 62
    16
 10
10.97292234094706
 20
8.4753889197775099
 30
0.0
 11
11.020143101409509
 21
8.4482679065929815
 31
0.0
  0
LINE
  5
CDF
  8
0
  6
CONTINUOUS
 62
    16
 10
15.313897358865891
 20
8.4753889197775099
 30
0.0
 11
15.24743403948646
 21
8.4482679065929815
 31
0.0
  0
LINE
  5
CE0
  8
0
  6
CONTINUOUS
 62
    16
 10
11.020143101409509
 20
8.4482679065929815
 30
0.0
 11
11.835702646230111
 21
8.1505203542444704
 31
0.0
  0
LINE
  5
CE1
  8
0
  6
CONTINUOUS
 62
    16
 10
15.24743403948646
 20
8.4482679065929815
 30
0.0
 11
14.517767690683909
 21
8.1505203542444704
 31
0.0
  0
LINE
  5
CE2
  8
0
  6
CONTINUOUS
 62
    16
 10
11.835702646230111
 20
8.1505203542444704
 30
0.0
 11
11.881316414222299
 21
8.1338675079142195
 31
0.0
  0
LINE
  5
CE3
  8
0
  6
CONTINUOUS
 62
    16
 10
14.517767690683909
 20
8.1505203542444704
 30
0.0
 11
14.432857431065379
 21
8.1338675079142195
 31
0.0
  0
LINE
  5
CE4
  8
0
  6
CONTINUOUS
 62
    16
 10
13.660563075942839
 20
7.9824028995694301
 30
0.0
 11
12.771608824586281
 21
7.9767879205729919
 31
0.0
  0
LINE
  5
CE5
  8
0
  6
CONTINUOUS
 62
    16
 10
12.771608824586281
 20
7.9767879205729919
 30
0.0
 11
12.739784363690401
 21
7.9824028995694301
 31
0.0
  0
LINE
  5
CE6
  8
0
  6
CONTINUOUS
 62
    16
 10
11.881316414222299
 20
8.1338675079142195
 30
0.0
 11
12.739784363690401
 21
7.9824028995694301
 31
0.0
  0
LINE
  5
CE7
  8
0
  6
CONTINUOUS
 62
    16
 10
14.432857431065379
 20
8.1338675079142195
 30
0.0
 11
13.660563075942839
 21
7.9824028995694301
 31
0.0
  0
ENDBLK
  5
CE9
  8
0
  0
BLOCK
  8
0
  2
*U14
 70
     1
 10
0.0
 20
0.0
 30
0.0
  3
*U14
  1

  0
SOLID
  5
CEB
  8
0
  6
CONTINUOUS
 62
     1
 10
12.509533271514311
 20
17.627105732710479
 30
0.0
 11
11.6637834733997
 21
17.612344251020371
 31
0.0
 12
12.5950660055762
 22
17.612344251020371
 32
0.0
 13
12.5950660055762
 23
17.612344251020371
 33
0.0
210
0.0
220
0.0
230
1.0
  0
SOLID
  5
CEC
  8
0
  6
CONTINUOUS
 62
     1
 10
11.6637834733997
 20
17.612344251020371
 30
0.0
 11
11.063989299597511
 21
17.477576292529768
 31
0.0
 12
13.37595455021072
 22
17.477576292529768
 32
0.0
 13
13.37595455021072
 23
17.477576292529768
 33
0.0
210
0.0
220
0.0
230
1.0
  0
SOLID
  5
CED
  8
0
  6
CONTINUOUS
 62
     1
 10
-11.6637834733997
 20
17.612344251020371
 30
0.0
 11
-12.5950660055762
 21
17.612344251020371
 31
0.0
 12
-13.37595455021072
 22
17.477576292529768
 32
0.0
 13
-13.37595455021072
 23
17.477576292529768
 33
0.0
210
0.0
220
0.0
230
-1.0
  0
SOLID
  5
CEE
  8
0
  6
CONTINUOUS
 62
     1
 10
11.063989299597511
 20
17.477576292529768
 30
0.0
 11
10.869272757150361
 21
17.43382536586838
 31
0.0
 12
13.49735254752329
 22
17.43382536586838
 32
0.0
 13
13.49735254752329
 23
17.43382536586838
 33
0.0
210
0.0
220
0.0
230
1.0
  0
SOLID
  5
CEF
  8
0
  6
CONTINUOUS
 62
     1
 10
-11.063989299597511
 20
17.477576292529768
 30
0.0
 11
-13.37595455021072
 21
17.477576292529768
 31
0.0
 12
-13.49735254752329
 22
17.43382536586838
 32
0.0
 13
-13.49735254752329
 23
17.43382536586838
 33
0.0
210
0.0
220
0.0
230
-1.0
  0
SOLID
  5
CF0
  8
0
  6
CONTINUOUS
 62
     1
 10
10.869272757150361
 20
17.43382536586838
 30
0.0
 11
10.30612687797281
 21
17.16916031404153
 31
0.0
 12
14.231732587038231
 22
17.16916031404153
 32
0.0
 13
14.231732587038231
 23
17.16916031404153
 33
0.0
210
0.0
220
0.0
230
1.0
  0
SOLID
  5
CF1
  8
0
  6
CONTINUOUS
 62
     1
 10
-10.869272757150361
 20
17.43382536586838
 30
0.0
 11
-13.49735254752329
 21
17.43382536586838
 31
0.0
 12
-14.231732587038231
 22
17.16916031404153
 32
0.0
 13
-14.231732587038231
 23
17.16916031404153
 33
0.0
210
0.0
220
0.0
230
-1.0
  0
SOLID
  5
CF2
  8
0
  6
CONTINUOUS
 62
     1
 10
10.30612687797281
 20
17.16916031404153
 30
0.0
 11
10.15471681012902
 21
17.098001214890331
 31
0.0
 12
14.35874644246773
 22
17.098001214890331
 32
0.0
 13
14.35874644246773
 23
17.098001214890331
 33
0.0
210
0.0
220
0.0
230
1.0
  0
SOLID
  5
CF3
  8
0
  6
CONTINUOUS
 62
     1
 10
-10.30612687797281
 20
17.16916031404153
 30
0.0
 11
-14.231732587038231
 21
17.16916031404153
 31
0.0
 12
-14.35874644246773
 22
17.098001214890331
 32
0.0
 13
-14.35874644246773
 23
17.098001214890331
 33
0.0
210
0.0
220
0.0
230
-1.0
  0
SOLID
  5
CF4
  8
0
  6
CONTINUOUS
 62
     1
 10
10.15471681012902
 20
17.098001214890331
 30
0.0
 11
9.667439700180811
 21
16.713004754278309
 31
0.0
 12
15.04593733403795
 22
16.713004754278309
 32
0.0
 13
15.04593733403795
 23
16.713004754278309
 33
0.0
210
0.0
220
0.0
230
1.0
  0
SOLID
  5
CF5
  8
0
  6
CONTINUOUS
 62
     1
 10
-10.15471681012902
 20
17.098001214890331
 30
0.0
 11
-14.35874644246773
 21
17.098001214890331
 31
0.0
 12
-15.04593733403795
 22
16.713004754278309
 32
0.0
 13
-15.04593733403795
 23
16.713004754278309
 33
0.0
210
0.0
220
0.0
230
-1.0
  0
SOLID
  5
CF6
  8
0
  6
CONTINUOUS
 62
     1
 10
9.667439700180811
 20
16.713004754278309
 30
0.0
 11
9.5459415460183923
 21
16.617009357883859
 31
0.0
 12
15.16739312066785
 22
16.617009357883859
 32
0.0
 13
15.16739312066785
 23
16.617009357883859
 33
0.0
210
0.0
220
0.0
230
1.0
  0
SOLID
  5
CF7
  8
0
  6
CONTINUOUS
 62
     1
 10
-9.667439700180811
 20
16.713004754278309
 30
0.0
 11
-15.04593733403795
 21
16.713004754278309
 31
0.0
 12
-15.16739312066785
 22
16.617009357883859
 32
0.0
 13
-15.16739312066785
 23
16.617009357883859
 33
0.0
210
0.0
220
0.0
230
-1.0
  0
SOLID
  5
CF8
  8
0
  6
CONTINUOUS
 62
     1
 10
9.5459415460183923
 20
16.617009357883859
 30
0.0
 11
9.1576772542887976
 21
16.125596263671689
 31
0.0
 12
15.78914131026354
 22
16.125596263671689
 32
0.0
 13
15.78914131026354
 23
16.125596263671689
 33
0.0
210
0.0
220
0.0
230
1.0
  0
SOLID
  5
CF9
  8
0
  6
CONTINUOUS
 62
     1
 10
-9.5459415460183923
 20
16.617009357883859
 30
0.0
 11
-15.16739312066785
 21
16.617009357883859
 31
0.0
 12
-15.78914131026354
 22
16.125596263671689
 32
0.0
 13
-15.78914131026354
 23
16.125596263671689
 33
0.0
210
0.0
220
0.0
230
-1.0
  0
SOLID
  5
CFA
  8
0
  6
CONTINUOUS
 62
     1
 10
9.1576772542887976
 20
16.125596263671689
 30
0.0
 11
9.0649496890119181
 21
16.008234093773229
 31
0.0
 12
15.89773804411413
 22
16.008234093773229
 32
0.0
 13
15.89773804411413
 23
16.008234093773229
 33
0.0
210
0.0
220
0.0
230
1.0
  0
SOLID
  5
CFB
  8
0
  6
CONTINUOUS
 62
     1
 10
-9.1576772542887976
 20
16.125596263671689
 30
0.0
 11
-15.78914131026354
 21
16.125596263671689
 31
0.0
 12
-15.89773804411413
 22
16.008234093773229
 32
0.0
 13
-15.89773804411413
 23
16.008234093773229
 33
0.0
210
0.0
220
0.0
230
-1.0
  0
SOLID
  5
CFC
  8
0
  6
CONTINUOUS
 62
     1
 10
9.0649496890119181
 20
16.008234093773229
 30
0.0
 11
8.7923312806595604
 21
15.42816531555007
 31
0.0
 12
16.43448318761515
 22
15.42816531555007
 32
0.0
 13
16.43448318761515
 23
15.42816531555007
 33
0.0
210
0.0
220
0.0
230
1.0
  0
SOLID
  5
CFD
  8
0
  6
CONTINUOUS
 62
     1
 10
-9.0649496890119181
 20
16.008234093773229
 30
0.0
 11
-15.89773804411413
 21
16.008234093773229
 31
0.0
 12
-16.43448318761515
 22
15.42816531555007
 32
0.0
 13
-16.43448318761515
 23
15.42816531555007
 33
0.0
210
0.0
220
0.0
230
-1.0
  0
SOLID
  5
CFE
  8
0
  6
CONTINUOUS
 62
     1
 10
8.7923312806595604
 20
15.42816531555007
 30
0.0
 11
8.7291255380338697
 21
15.293678146751899
 31
0.0
 12
16.52459824379843
 22
15.293678146751899
 32
0.0
 13
16.52459824379843
 23
15.293678146751899
 33
0.0
  0
SOLID
  5
CFF
  8
0
  6
CONTINUOUS
 62
     1
 10
-8.7923312806595604
 20
15.42816531555007
 30
0.0
 11
-16.43448318761515
 21
15.42816531555007
 31
0.0
 12
-16.52459824379843
 22
15.293678146751899
 32
0.0
 13
-16.52459824379843
 23
15.293678146751899
 33
0.0
210
0.0
220
0.0
230
-1.0
  0
SOLID
  5
D00
  8
0
  6
CONTINUOUS
 62
     1
 10
8.7291255380338697
 20
15.293678146751899
 30
0.0
 11
8.5835802867093047
 21
14.645918881517179
 31
0.0
 12
16.958638629223401
 22
14.645918881517179
 32
0.0
 13
16.958638629223401
 23
14.645918881517179
 33
0.0
210
0.0
220
0.0
230
1.0
  0
SOLID
  5
D01
  8
0
  6
CONTINUOUS
 62
     1
 10
-8.7291255380338697
 20
15.293678146751899
 30
0.0
 11
-16.52459824379843
 21
15.293678146751899
 31
0.0
 12
-16.958638629223401
 22
14.645918881517179
 32
0.0
 13
-16.958638629223401
 23
14.645918881517179
 33
0.0
210
0.0
220
0.0
230
-1.0
  0
SOLID
  5
D02
  8
0
  6
CONTINUOUS
 62
     1
 10
8.5835802867093047
 20
14.645918881517179
 30
0.0
 11
8.5506066528818856
 21
14.499167430502551
 31
0.0
 12
17.025826137818999
 22
14.499167430502551
 32
0.0
 13
17.025826137818999
 23
14.499167430502551
 33
0.0
  0
SOLID
  5
D03
  8
0
  6
CONTINUOUS
 62
     1
 10
-8.5835802867093047
 20
14.645918881517179
 30
0.0
 11
-16.958638629223401
 21
14.645918881517179
 31
0.0
 12
-17.025826137818999
 22
14.499167430502551
 32
0.0
 13
-17.025826137818999
 23
14.499167430502551
 33
0.0
210
0.0
220
0.0
230
-1.0
  0
SOLID
  5
D04
  8
0
  6
CONTINUOUS
 62
     1
 10
8.5506066528818856
 20
14.499167430502551
 30
0.0
 11
8.5385280133738597
 21
13.80712938582217
 31
0.0
 12
17.342663291754921
 22
13.80712938582217
 32
0.0
 13
17.342663291754921
 23
13.80712938582217
 33
0.0
210
0.0
220
0.0
230
1.0
  0
SOLID
  5
D05
  8
0
  6
CONTINUOUS
 62
     1
 10
-8.5506066528818856
 20
14.499167430502551
 30
0.0
 11
-17.025826137818999
 21
14.499167430502551
 31
0.0
 12
-17.342663291754921
 22
13.80712938582217
 32
0.0
 13
-17.342663291754921
 23
13.80712938582217
 33
0.0
210
0.0
220
0.0
230
-1.0
  0
SOLID
  5
D06
  8
0
  6
CONTINUOUS
 62
     1
 10
8.5385280133738597
 20
13.80712938582217
 30
0.0
 11
8.5358451711917702
 21
13.65341763238794
 31
0.0
 12
17.383536373428019
 22
13.65341763238794
 32
0.0
 13
17.383536373428019
 23
13.65341763238794
 33
0.0
210
0.0
220
0.0
230
1.0
  0
SOLID
  5
D07
  8
0
  6
CONTINUOUS
 62
     1
 10
-8.5385280133738597
 20
13.80712938582217
 30
0.0
 11
-17.342663291754921
 21
13.80712938582217
 31
0.0
 12
-17.383536373428019
 22
13.65341763238794
 32
0.0
 13
-17.383536373428019
 23
13.65341763238794
 33
0.0
210
0.0
220
0.0
230
-1.0
  0
SOLID
  5
D08
  8
0
  6
CONTINUOUS
 62
     1
 10
8.5358451711917702
 20
13.65341763238794
 30
0.0
 11
8.6586041639457232
 21
12.94211286628418
 31
0.0
 12
17.572677523339301
 22
12.94211286628418
 32
0.0
 13
17.572677523339301
 23
12.94211286628418
 33
0.0
210
0.0
220
0.0
230
1.0
  0
SOLID
  5
D09
  8
0
  6
CONTINUOUS
 62
     1
 10
-8.5358451711917702
 20
13.65341763238794
 30
0.0
 11
-17.383536373428019
 21
13.65341763238794
 31
0.0
 12
-17.572677523339301
 22
12.94211286628418
 32
0.0
 13
-17.572677523339301
 23
12.94211286628418
 33
0.0
210
0.0
220
0.0
230
-1.0
  0
SOLID
  5
D0A
  8
0
  6
CONTINUOUS
 62
     1
 10
8.6586041639457232
 20
12.94211286628418
 30
0.0
 11
8.6853746113724775
 21
12.78699635369153
 31
0.0
 12
17.584887013391679
 22
12.78699635369153
 32
0.0
 13
17.584887013391679
 23
12.78699635369153
 33
0.0
  0
SOLID
  5
D0B
  8
0
  6
CONTINUOUS
 62
     1
 10
-8.6586041639457232
 20
12.94211286628418
 30
0.0
 11
-17.572677523339301
 21
12.94211286628418
 31
0.0
 12
-17.584887013391679
 22
12.78699635369153
 32
0.0
 13
-17.584887013391679
 23
12.78699635369153
 33
0.0
210
0.0
220
0.0
230
-1.0
  0
SOLID
  5
D0C
  8
0
  6
CONTINUOUS
 62
     1
 10
8.6853746113724775
 20
12.78699635369153
 30
0.0
 11
8.939401972628886
 21
12.08213327369787
 31
0.0
 12
17.640368010350851
 22
12.08213327369787
 32
0.0
 13
17.640368010350851
 23
12.08213327369787
 33
0.0
  0
SOLID
  5
D0D
  8
0
  6
CONTINUOUS
 62
     1
 10
-8.6853746113724775
 20
12.78699635369153
 30
0.0
 11
-17.584887013391679
 21
12.78699635369153
 31
0.0
 12
-17.640368010350851
 22
12.08213327369787
 32
0.0
 13
-17.640368010350851
 23
12.08213327369787
 33
0.0
210
0.0
220
0.0
230
-1.0
  0
SOLID
  5
D0E
  8
0
  6
CONTINUOUS
 62
     1
 10
8.939401972628886
 20
12.08213327369787
 30
0.0
 11
8.9937905898607191
 21
11.93121831686403
 31
0.0
 12
17.622584921650379
 22
11.93121831686403
 32
0.0
 13
17.622584921650379
 23
11.93121831686403
 33
0.0
  0
SOLID
  5
D0F
  8
0
  6
CONTINUOUS
 62
     1
 10
-8.939401972628886
 20
12.08213327369787
 30
0.0
 11
-17.640368010350851
 21
12.08213327369787
 31
0.0
 12
-17.622584921650379
 22
11.93121831686403
 32
0.0
 13
-17.622584921650379
 23
11.93121831686403
 33
0.0
210
0.0
220
0.0
230
-1.0
  0
SOLID
  5
D10
  8
0
  6
CONTINUOUS
 62
     1
 10
8.9937905898607191
 20
11.93121831686403
 30
0.0
 11
9.3708062874561193
 21
11.25827251119428
 31
0.0
 12
17.543288242223131
 22
11.25827251119428
 32
0.0
 13
17.543288242223131
 23
11.25827251119428
 33
0.0
210
0.0
220
0.0
230
1.0
  0
SOLID
  5
D11
  8
0
  6
CONTINUOUS
 62
     1
 10
-8.9937905898607191
 20
11.93121831686403
 30
0.0
 11
-17.622584921650379
 21
11.93121831686403
 31
0.0
 12
-17.543288242223131
 22
11.25827251119428
 32
0.0
 13
-17.543288242223131
 23
11.25827251119428
 33
0.0
210
0.0
220
0.0
230
-1.0
  0
SOLID
  5
D12
  8
0
  6
CONTINUOUS
 62
     1
 10
9.3708062874561193
 20
11.25827251119428
 30
0.0
 11
9.4499461496239316
 21
11.1170135698643
 31
0.0
 12
17.49514222287716
 22
11.1170135698643
 32
0.0
 13
17.49514222287716
 23
11.1170135698643
 33
0.0
210
0.0
220
0.0
230
1.0
  0
SOLID
  5
D13
  8
0
  6
CONTINUOUS
 62
     1
 10
-9.3708062874561193
 20
11.25827251119428
 30
0.0
 11
-17.543288242223131
 21
11.25827251119428
 31
0.0
 12
-17.49514222287716
 22
11.1170135698643
 32
0.0
 13
-17.49514222287716
 23
11.1170135698643
 33
0.0
210
0.0
220
0.0
230
-1.0
  0
SOLID
  5
D14
  8
0
  6
CONTINUOUS
 62
     1
 10
9.4499461496239316
 20
11.1170135698643
 30
0.0
 11
9.9373744407031062
 21
10.500307053278579
 31
0.0
 12
17.284946934715151
 22
10.500307053278579
 32
0.0
 13
17.284946934715151
 23
10.500307053278579
 33
0.0
210
0.0
220
0.0
230
1.0
  0
SOLID
  5
D15
  8
0
  6
CONTINUOUS
 62
     1
 10
-9.4499461496239316
 20
11.1170135698643
 30
0.0
 11
-17.49514222287716
 21
11.1170135698643
 31
0.0
 12
-17.284946934715151
 22
10.500307053278579
 32
0.0
 13
-17.284946934715151
 23
10.500307053278579
 33
0.0
210
0.0
220
0.0
230
-1.0
  0
SOLID
  5
D16
  8
0
  6
CONTINUOUS
 62
     1
 10
9.9373744407031062
 20
10.500307053278579
 30
0.0
 11
10.037354640230561
 21
10.373809593638709
 31
0.0
 12
17.206867351059859
 22
10.373809593638709
 32
0.0
 13
17.206867351059859
 23
10.373809593638709
 33
0.0
  0
SOLID
  5
D17
  8
0
  6
CONTINUOUS
 62
     1
 10
-9.9373744407031062
 20
10.500307053278579
 30
0.0
 11
-17.284946934715151
 21
10.500307053278579
 31
0.0
 12
-17.206867351059859
 22
10.373809593638709
 32
0.0
 13
-17.206867351059859
 23
10.373809593638709
 33
0.0
210
0.0
220
0.0
230
-1.0
  0
SOLID
  5
D18
  8
0
  6
CONTINUOUS
 62
     1
 10
10.037354640230561
 20
10.373809593638709
 30
0.0
 11
10.618971763477781
 21
9.8356317464595602
 31
0.0
 12
16.874681215781951
 22
9.8356317464595602
 32
0.0
 13
16.874681215781951
 23
9.8356317464595602
 33
0.0
210
0.0
220
0.0
230
1.0
  0
SOLID
  5
D19
  8
0
  6
CONTINUOUS
 62
     1
 10
-10.037354640230561
 20
10.373809593638709
 30
0.0
 11
-17.206867351059859
 21
10.373809593638709
 31
0.0
 12
-16.874681215781951
 22
9.8356317464595602
 32
0.0
 13
-16.874681215781951
 23
9.8356317464595602
 33
0.0
210
0.0
220
0.0
230
-1.0
  0
SOLID
  5
D1A
  8
0
  6
CONTINUOUS
 62
     1
 10
10.618971763477781
 20
9.8356317464595602
 30
0.0
 11
10.73478558835218
 21
9.7284677162871063
 31
0.0
 12
16.767517185609488
 22
9.7284677162871063
 32
0.0
 13
16.767517185609488
 23
9.7284677162871063
 33
0.0
210
0.0
220
0.0
230
1.0
  0
SOLID
  5
D1B
  8
0
  6
CONTINUOUS
 62
     1
 10
-10.618971763477781
 20
9.8356317464595602
 30
0.0
 11
-16.874681215781951
 21
9.8356317464595602
 31
0.0
 12
-16.767517185609488
 22
9.7284677162871063
 32
0.0
 13
-16.767517185609488
 23
9.7284677162871063
 33
0.0
210
0.0
220
0.0
230
-1.0
  0
SOLID
  5
D1C
  8
0
  6
CONTINUOUS
 62
     1
 10
10.73478558835218
 20
9.7284677162871063
 30
0.0
 11
11.39173448264439
 21
9.2882696881202982
 31
0.0
 12
16.32731915744268
 22
9.2882696881202982
 32
0.0
 13
16.32731915744268
 23
9.2882696881202982
 33
0.0
210
0.0
220
0.0
230
1.0
  0
SOLID
  5
D1D
  8
0
  6
CONTINUOUS
 62
     1
 10
-10.73478558835218
 20
9.7284677162871063
 30
0.0
 11
-16.767517185609488
 21
9.7284677162871063
 31
0.0
 12
-16.32731915744268
 22
9.2882696881202982
 32
0.0
 13
-16.32731915744268
 23
9.2882696881202982
 33
0.0
210
0.0
220
0.0
230
-1.0
  0
SOLID
  5
D1E
  8
0
  6
CONTINUOUS
 62
     1
 10
11.39173448264439
 20
9.2882696881202982
 30
0.0
 11
11.51703202238506
 21
9.2043122746788448
 31
0.0
 12
16.19129897110092
 22
9.2043122746788448
 32
0.0
 13
16.19129897110092
 23
9.2043122746788448
 33
0.0
210
0.0
220
0.0
230
1.0
  0
SOLID
  5
D1F
  8
0
  6
CONTINUOUS
 62
     1
 10
-11.39173448264439
 20
9.2882696881202982
 30
0.0
 11
-16.32731915744268
 21
9.2882696881202982
 31
0.0
 12
-16.19129897110092
 22
9.2043122746788448
 32
0.0
 13
-16.19129897110092
 23
9.2043122746788448
 33
0.0
210
0.0
220
0.0
230
-1.0
  0
SOLID
  5
D20
  8
0
  6
CONTINUOUS
 62
     1
 10
11.51703202238506
 20
9.2043122746788448
 30
0.0
 11
12.229757026035189
 21
8.8780039691870982
 31
0.0
 12
15.66264385062367
 22
8.8780039691870982
 32
0.0
 13
15.66264385062367
 23
8.8780039691870982
 33
0.0
210
0.0
220
0.0
230
1.0
  0
SOLID
  5
D21
  8
0
  6
CONTINUOUS
 62
     1
 10
-11.51703202238506
 20
9.2043122746788448
 30
0.0
 11
-16.19129897110092
 21
9.2043122746788448
 31
0.0
 12
-15.66264385062367
 22
8.8780039691870982
 32
0.0
 13
-15.66264385062367
 23
8.8780039691870982
 33
0.0
210
0.0
220
0.0
230
-1.0
  0
SOLID
  5
D22
  8
0
  6
CONTINUOUS
 62
     1
 10
12.229757026035189
 20
8.8780039691870982
 30
0.0
 11
12.35582151808007
 21
8.8202876121473288
 31
0.0
 12
15.49330583257743
 22
8.8202876121473288
 32
0.0
 13
15.49330583257743
 23
8.8202876121473288
 33
0.0
210
0.0
220
0.0
230
1.0
  0
SOLID
  5
D23
  8
0
  6
CONTINUOUS
 62
     1
 10
-12.229757026035189
 20
8.8780039691870982
 30
0.0
 11
-15.66264385062367
 21
8.8780039691870982
 31
0.0
 12
-15.49330583257743
 22
8.8202876121473288
 32
0.0
 13
-15.49330583257743
 23
8.8202876121473288
 33
0.0
210
0.0
220
0.0
230
-1.0
  0
SOLID
  5
D24
  8
0
  6
CONTINUOUS
 62
     1
 10
12.35582151808007
 20
8.8202876121473288
 30
0.0
 11
13.110313512732279
 21
8.6196626616791132
 31
0.0
 12
14.90467839270795
 22
8.6196626616791132
 32
0.0
 13
14.90467839270795
 23
8.6196626616791132
 33
0.0
  0
SOLID
  5
D25
  8
0
  6
CONTINUOUS
 62
     1
 10
-12.35582151808007
 20
8.8202876121473288
 30
0.0
 11
-15.49330583257743
 21
8.8202876121473288
 31
0.0
 12
-14.90467839270795
 22
8.6196626616791132
 32
0.0
 13
-14.90467839270795
 23
8.6196626616791132
 33
0.0
210
0.0
220
0.0
230
-1.0
  0
SOLID
  5
D26
  8
0
  6
CONTINUOUS
 62
     1
 10
-13.22083803761806
 20
8.5902733805629481
 30
0.0
 11
-14.655268283714451
 21
8.5902733805629481
 31
0.0
 12
-14.08081763020437
 22
8.5225828935513981
 32
0.0
 13
-14.08081763020437
 23
8.5225828935513981
 33
0.0
210
0.0
220
0.0
230
-1.0
  0
SOLID
  5
D27
  8
0
  6
CONTINUOUS
 62
     1
 10
13.110313512732279
 20
8.6196626616791132
 30
0.0
 11
13.22083803761806
 21
8.5902733805629481
 31
0.0
 12
14.655268283714451
 22
8.5902733805629481
 32
0.0
 13
14.655268283714451
 23
8.5902733805629481
 33
0.0
210
0.0
220
0.0
230
1.0
  0
SOLID
  5
D28
  8
0
  6
CONTINUOUS
 62
     1
 10
-13.110313512732279
 20
8.6196626616791132
 30
0.0
 11
-14.90467839270795
 21
8.6196626616791132
 31
0.0
 12
-14.655268283714451
 22
8.5902733805629481
 32
0.0
 13
-14.655268283714451
 23
8.5902733805629481
 33
0.0
210
0.0
220
0.0
230
-1.0
  0
LINE
  5
D29
  8
0
  6
CONTINUOUS
 62
     1
 10
12.509533271514311
 20
17.627105732710479
 30
0.0
 11
11.6637834733997
 21
17.612344251020371
 31
0.0
  0
LINE
  5
D2A
  8
0
  6
CONTINUOUS
 62
     1
 10
12.5950660055762
 20
17.612344251020371
 30
0.0
 11
12.509533271514311
 21
17.627105732710479
 31
0.0
  0
LINE
  5
D2B
  8
0
  6
CONTINUOUS
 62
     1
 10
11.6637834733997
 20
17.612344251020371
 30
0.0
 11
11.063989299597511
 21
17.477576292529768
 31
0.0
  0
LINE
  5
D2C
  8
0
  6
CONTINUOUS
 62
     1
 10
12.5950660055762
 20
17.612344251020371
 30
0.0
 11
13.37595455021072
 21
17.477576292529768
 31
0.0
  0
LINE
  5
D2D
  8
0
  6
CONTINUOUS
 62
     1
 10
11.063989299597511
 20
17.477576292529768
 30
0.0
 11
10.869272757150361
 21
17.43382536586838
 31
0.0
  0
LINE
  5
D2E
  8
0
  6
CONTINUOUS
 62
     1
 10
13.37595455021072
 20
17.477576292529768
 30
0.0
 11
13.49735254752329
 21
17.43382536586838
 31
0.0
  0
LINE
  5
D2F
  8
0
  6
CONTINUOUS
 62
     1
 10
10.869272757150361
 20
17.43382536586838
 30
0.0
 11
10.30612687797281
 21
17.16916031404153
 31
0.0
  0
LINE
  5
D30
  8
0
  6
CONTINUOUS
 62
     1
 10
13.49735254752329
 20
17.43382536586838
 30
0.0
 11
14.231732587038231
 21
17.16916031404153
 31
0.0
  0
LINE
  5
D31
  8
0
  6
CONTINUOUS
 62
     1
 10
10.30612687797281
 20
17.16916031404153
 30
0.0
 11
10.15471681012902
 21
17.098001214890331
 31
0.0
  0
LINE
  5
D32
  8
0
  6
CONTINUOUS
 62
     1
 10
14.231732587038231
 20
17.16916031404153
 30
0.0
 11
14.35874644246773
 21
17.098001214890331
 31
0.0
  0
LINE
  5
D33
  8
0
  6
CONTINUOUS
 62
     1
 10
10.15471681012902
 20
17.098001214890331
 30
0.0
 11
9.667439700180811
 21
16.713004754278309
 31
0.0
  0
LINE
  5
D34
  8
0
  6
CONTINUOUS
 62
     1
 10
14.35874644246773
 20
17.098001214890331
 30
0.0
 11
15.04593733403795
 21
16.713004754278309
 31
0.0
  0
LINE
  5
D35
  8
0
  6
CONTINUOUS
 62
     1
 10
9.667439700180811
 20
16.713004754278309
 30
0.0
 11
9.5459415460183923
 21
16.617009357883859
 31
0.0
  0
LINE
  5
D36
  8
0
  6
CONTINUOUS
 62
     1
 10
15.04593733403795
 20
16.713004754278309
 30
0.0
 11
15.16739312066785
 21
16.617009357883859
 31
0.0
  0
LINE
  5
D37
  8
0
  6
CONTINUOUS
 62
     1
 10
9.5459415460183923
 20
16.617009357883859
 30
0.0
 11
9.1576772542887976
 21
16.125596263671689
 31
0.0
  0
LINE
  5
D38
  8
0
  6
CONTINUOUS
 62
     1
 10
15.16739312066785
 20
16.617009357883859
 30
0.0
 11
15.78914131026354
 21
16.125596263671689
 31
0.0
  0
LINE
  5
D39
  8
0
  6
CONTINUOUS
 62
     1
 10
9.1576772542887976
 20
16.125596263671689
 30
0.0
 11
9.0649496890119181
 21
16.008234093773229
 31
0.0
  0
LINE
  5
D3A
  8
0
  6
CONTINUOUS
 62
     1
 10
15.78914131026354
 20
16.125596263671689
 30
0.0
 11
15.89773804411413
 21
16.008234093773229
 31
0.0
  0
LINE
  5
D3B
  8
0
  6
CONTINUOUS
 62
     1
 10
9.0649496890119181
 20
16.008234093773229
 30
0.0
 11
8.7923312806595604
 21
15.42816531555007
 31
0.0
  0
LINE
  5
D3C
  8
0
  6
CONTINUOUS
 62
     1
 10
15.89773804411413
 20
16.008234093773229
 30
0.0
 11
16.43448318761515
 21
15.42816531555007
 31
0.0
  0
LINE
  5
D3D
  8
0
  6
CONTINUOUS
 62
     1
 10
8.7923312806595604
 20
15.42816531555007
 30
0.0
 11
8.7291255380338697
 21
15.293678146751899
 31
0.0
  0
LINE
  5
D3E
  8
0
  6
CONTINUOUS
 62
     1
 10
16.43448318761515
 20
15.42816531555007
 30
0.0
 11
16.52459824379843
 21
15.293678146751899
 31
0.0
  0
LINE
  5
D3F
  8
0
  6
CONTINUOUS
 62
     1
 10
8.7291255380338697
 20
15.293678146751899
 30
0.0
 11
8.5835802867093047
 21
14.645918881517179
 31
0.0
  0
LINE
  5
D40
  8
0
  6
CONTINUOUS
 62
     1
 10
16.52459824379843
 20
15.293678146751899
 30
0.0
 11
16.958638629223401
 21
14.645918881517179
 31
0.0
  0
LINE
  5
D41
  8
0
  6
CONTINUOUS
 62
     1
 10
8.5835802867093047
 20
14.645918881517179
 30
0.0
 11
8.5506066528818856
 21
14.499167430502551
 31
0.0
  0
LINE
  5
D42
  8
0
  6
CONTINUOUS
 62
     1
 10
16.958638629223401
 20
14.645918881517179
 30
0.0
 11
17.025826137818999
 21
14.499167430502551
 31
0.0
  0
LINE
  5
D43
  8
0
  6
CONTINUOUS
 62
     1
 10
8.5506066528818856
 20
14.499167430502551
 30
0.0
 11
8.5385280133738597
 21
13.80712938582217
 31
0.0
  0
LINE
  5
D44
  8
0
  6
CONTINUOUS
 62
     1
 10
17.025826137818999
 20
14.499167430502551
 30
0.0
 11
17.342663291754921
 21
13.80712938582217
 31
0.0
  0
LINE
  5
D45
  8
0
  6
CONTINUOUS
 62
     1
 10
8.5385280133738597
 20
13.80712938582217
 30
0.0
 11
8.5358451711917702
 21
13.65341763238794
 31
0.0
  0
LINE
  5
D46
  8
0
  6
CONTINUOUS
 62
     1
 10
17.342663291754921
 20
13.80712938582217
 30
0.0
 11
17.383536373428019
 21
13.65341763238794
 31
0.0
  0
LINE
  5
D47
  8
0
  6
CONTINUOUS
 62
     1
 10
8.5358451711917702
 20
13.65341763238794
 30
0.0
 11
8.6586041639457232
 21
12.94211286628418
 31
0.0
  0
LINE
  5
D48
  8
0
  6
CONTINUOUS
 62
     1
 10
17.383536373428019
 20
13.65341763238794
 30
0.0
 11
17.572677523339301
 21
12.94211286628418
 31
0.0
  0
LINE
  5
D49
  8
0
  6
CONTINUOUS
 62
     1
 10
8.6586041639457232
 20
12.94211286628418
 30
0.0
 11
8.6853746113724775
 21
12.78699635369153
 31
0.0
  0
LINE
  5
D4A
  8
0
  6
CONTINUOUS
 62
     1
 10
17.572677523339301
 20
12.94211286628418
 30
0.0
 11
17.584887013391679
 21
12.78699635369153
 31
0.0
  0
LINE
  5
D4B
  8
0
  6
CONTINUOUS
 62
     1
 10
8.6853746113724775
 20
12.78699635369153
 30
0.0
 11
8.939401972628886
 21
12.08213327369787
 31
0.0
  0
LINE
  5
D4C
  8
0
  6
CONTINUOUS
 62
     1
 10
17.584887013391679
 20
12.78699635369153
 30
0.0
 11
17.640368010350851
 21
12.08213327369787
 31
0.0
  0
LINE
  5
D4D
  8
0
  6
CONTINUOUS
 62
     1
 10
8.939401972628886
 20
12.08213327369787
 30
0.0
 11
8.9937905898607191
 21
11.93121831686403
 31
0.0
  0
LINE
  5
D4E
  8
0
  6
CONTINUOUS
 62
     1
 10
17.640368010350851
 20
12.08213327369787
 30
0.0
 11
17.622584921650379
 21
11.93121831686403
 31
0.0
  0
LINE
  5
D4F
  8
0
  6
CONTINUOUS
 62
     1
 10
8.9937905898607191
 20
11.93121831686403
 30
0.0
 11
9.3708062874561193
 21
11.25827251119428
 31
0.0
  0
LINE
  5
D50
  8
0
  6
CONTINUOUS
 62
     1
 10
17.622584921650379
 20
11.93121831686403
 30
0.0
 11
17.543288242223131
 21
11.25827251119428
 31
0.0
  0
LINE
  5
D51
  8
0
  6
CONTINUOUS
 62
     1
 10
9.3708062874561193
 20
11.25827251119428
 30
0.0
 11
9.4499461496239316
 21
11.1170135698643
 31
0.0
  0
LINE
  5
D52
  8
0
  6
CONTINUOUS
 62
     1
 10
17.543288242223131
 20
11.25827251119428
 30
0.0
 11
17.49514222287716
 21
11.1170135698643
 31
0.0
  0
LINE
  5
D53
  8
0
  6
CONTINUOUS
 62
     1
 10
9.4499461496239316
 20
11.1170135698643
 30
0.0
 11
9.9373744407031062
 21
10.500307053278579
 31
0.0
  0
LINE
  5
D54
  8
0
  6
CONTINUOUS
 62
     1
 10
17.49514222287716
 20
11.1170135698643
 30
0.0
 11
17.284946934715151
 21
10.500307053278579
 31
0.0
  0
LINE
  5
D55
  8
0
  6
CONTINUOUS
 62
     1
 10
9.9373744407031062
 20
10.500307053278579
 30
0.0
 11
10.037354640230561
 21
10.373809593638709
 31
0.0
  0
LINE
  5
D56
  8
0
  6
CONTINUOUS
 62
     1
 10
17.284946934715151
 20
10.500307053278579
 30
0.0
 11
17.206867351059859
 21
10.373809593638709
 31
0.0
  0
LINE
  5
D57
  8
0
  6
CONTINUOUS
 62
     1
 10
10.037354640230561
 20
10.373809593638709
 30
0.0
 11
10.618971763477781
 21
9.8356317464595602
 31
0.0
  0
LINE
  5
D58
  8
0
  6
CONTINUOUS
 62
     1
 10
17.206867351059859
 20
10.373809593638709
 30
0.0
 11
16.874681215781951
 21
9.8356317464595602
 31
0.0
  0
LINE
  5
D59
  8
0
  6
CONTINUOUS
 62
     1
 10
10.618971763477781
 20
9.8356317464595602
 30
0.0
 11
10.73478558835218
 21
9.7284677162871063
 31
0.0
  0
LINE
  5
D5A
  8
0
  6
CONTINUOUS
 62
     1
 10
16.874681215781951
 20
9.8356317464595602
 30
0.0
 11
16.767517185609488
 21
9.7284677162871063
 31
0.0
  0
LINE
  5
D5B
  8
0
  6
CONTINUOUS
 62
     1
 10
10.73478558835218
 20
9.7284677162871063
 30
0.0
 11
11.39173448264439
 21
9.2882696881202982
 31
0.0
  0
LINE
  5
D5C
  8
0
  6
CONTINUOUS
 62
     1
 10
16.767517185609488
 20
9.7284677162871063
 30
0.0
 11
16.32731915744268
 21
9.2882696881202982
 31
0.0
  0
LINE
  5
D5D
  8
0
  6
CONTINUOUS
 62
     1
 10
11.39173448264439
 20
9.2882696881202982
 30
0.0
 11
11.51703202238506
 21
9.2043122746788448
 31
0.0
  0
LINE
  5
D5E
  8
0
  6
CONTINUOUS
 62
     1
 10
16.32731915744268
 20
9.2882696881202982
 30
0.0
 11
16.19129897110092
 21
9.2043122746788448
 31
0.0
  0
LINE
  5
D5F
  8
0
  6
CONTINUOUS
 62
     1
 10
11.51703202238506
 20
9.2043122746788448
 30
0.0
 11
12.229757026035189
 21
8.8780039691870982
 31
0.0
  0
LINE
  5
D60
  8
0
  6
CONTINUOUS
 62
     1
 10
16.19129897110092
 20
9.2043122746788448
 30
0.0
 11
15.66264385062367
 21
8.8780039691870982
 31
0.0
  0
LINE
  5
D61
  8
0
  6
CONTINUOUS
 62
     1
 10
12.229757026035189
 20
8.8780039691870982
 30
0.0
 11
12.35582151808007
 21
8.8202876121473288
 31
0.0
  0
LINE
  5
D62
  8
0
  6
CONTINUOUS
 62
     1
 10
15.66264385062367
 20
8.8780039691870982
 30
0.0
 11
15.49330583257743
 21
8.8202876121473288
 31
0.0
  0
LINE
  5
D63
  8
0
  6
CONTINUOUS
 62
     1
 10
12.35582151808007
 20
8.8202876121473288
 30
0.0
 11
13.110313512732279
 21
8.6196626616791132
 31
0.0
  0
LINE
  5
D64
  8
0
  6
CONTINUOUS
 62
     1
 10
15.49330583257743
 20
8.8202876121473288
 30
0.0
 11
14.90467839270795
 21
8.6196626616791132
 31
0.0
  0
LINE
  5
D65
  8
0
  6
CONTINUOUS
 62
     1
 10
14.655268283714451
 20
8.5902733805629481
 30
0.0
 11
14.08081763020437
 21
8.5225828935513981
 31
0.0
  0
LINE
  5
D66
  8
0
  6
CONTINUOUS
 62
     1
 10
14.08081763020437
 20
8.5225828935513981
 30
0.0
 11
13.22083803761806
 21
8.5902733805629481
 31
0.0
  0
LINE
  5
D67
  8
0
  6
CONTINUOUS
 62
     1
 10
13.110313512732279
 20
8.6196626616791132
 30
0.0
 11
13.22083803761806
 21
8.5902733805629481
 31
0.0
  0
LINE
  5
D68
  8
0
  6
CONTINUOUS
 62
     1
 10
14.90467839270795
 20
8.6196626616791132
 30
0.0
 11
14.655268283714451
 21
8.5902733805629481
 31
0.0
  0
ENDBLK
  5
D6A
  8
0
  0
BLOCK
  8
0
  2
*U15
 70
     1
 10
0.0
 20
0.0
 30
0.0
  3
*U15
  1

  0
SOLID
  5
D6C
  8
0
  6
CONTINUOUS
 62
     4
 10
-1.5
 20
1.5
 30
-1.0
 11
-1.5
 21
-1.5
 31
-1.0
 12
1.5
 22
-1.5
 32
-1.0
 13
1.5
 23
-1.5
 33
-1.0
210
0.0
220
0.0
230
1.0
  0
SOLID
  5
D6D
  8
0
  6
CONTINUOUS
 62
     4
 10
1.5
 20
1.5
 30
1.0
 11
-1.5
 21
1.5
 31
1.0
 12
-1.5
 22
-1.5
 32
1.0
 13
-1.5
 23
-1.5
 33
1.0
210
0.0
220
0.0
230
-1.0
  0
LINE
  5
D6E
  8
0
  6
CONTINUOUS
 62
     4
 10
-1.5
 20
1.5
 30
-1.0
 11
-1.5
 21
-1.5
 31
-1.0
  0
LINE
  5
D6F
  8
0
  6
CONTINUOUS
 62
     4
 10
1.5
 20
1.5
 30
-1.0
 11
1.5
 21
-1.5
 31
-1.0
  0
ENDBLK
  5
D71
  8
0
  0
BLOCK
  8
0
  2
*U16
 70
     1
 10
0.0
 20
0.0
 30
0.0
  3
*U16
  1

  0
SOLID
  5
D73
  8
0
  6
CONTINUOUS
 62
   142
 10
3.6682976931065729
 20
4.0836255755877877
 30
0.0
 11
3.297364607490723
 21
3.6706951206524958
 31
0.0
 12
4.0862944419833829
 22
3.6706951206524958
 32
0.0
 13
4.0862944419833829
 23
3.6706951206524958
 33
0.0
  0
SOLID
  5
D74
  8
0
  6
CONTINUOUS
 62
   142
 10
-3.297364607490723
 20
3.6706951206524958
 30
0.0
 11
-4.0862944419833829
 21
3.6706951206524958
 31
0.0
 12
0.0
 22
0.0
 32
0.0
 13
0.0
 23
0.0
 33
0.0
210
0.0
220
0.0
230
-1.0
  0
LINE
  5
D75
  8
0
  6
CONTINUOUS
 62
   142
 10
3.6682976931065729
 20
4.0836255755877877
 30
0.0
 11
3.297364607490723
 21
3.6706951206524958
 31
0.0
  0
LINE
  5
D76
  8
0
  6
CONTINUOUS
 62
   142
 10
4.0862944419833829
 20
3.6706951206524958
 30
0.0
 11
3.6682976931065729
 21
4.0836255755877877
 31
0.0
  0
LINE
  5
D77
  8
0
  6
CONTINUOUS
 62
   142
 10
4.0862944419833829
 20
3.6706951206524958
 30
0.0
 11
0.0
 21
0.0
 31
0.0
  0
LINE
  5
D78
  8
0
  6
CONTINUOUS
 62
   142
 10
0.0
 20
0.0
 30
0.0
 11
3.297364607490723
 21
3.6706951206524958
 31
0.0
  0
ENDBLK
  5
D7A
  8
0
  0
BLOCK
  8
0
  2
*U17
 70
     1
 10
0.0
 20
0.0
 30
0.0
  3
*U17
  1

  0
SOLID
  5
D82
  8
0
  6
CONTINUOUS
 62
    14
 10
9.5459415460183941
 20
16.617009357883859
 30
0.0
 11
8.9878476327803831
 21
16.06333673174764
 31
0.0
 12
9.0996943285474572
 22
16.06333673174764
 32
0.0
 13
9.0996943285474572
 23
16.06333673174764
 33
0.0
210
0.0
220
0.0
230
1.0
  0
SOLID
  5
D83
  8
0
  6
CONTINUOUS
 62
    14
 10
8.9878476327803831
 20
16.06333673174764
 30
0.0
 11
8.9458947136586406
 21
16.021716168696791
 31
0.0
 12
9.0786821489710956
 22
16.021716168696791
 32
0.0
 13
9.0786821489710956
 23
16.021716168696791
 33
0.0
  0
SOLID
  5
D84
  8
0
  6
CONTINUOUS
 62
    14
 10
-8.9878476327803831
 20
16.06333673174764
 30
0.0
 11
-9.0996943285474572
 21
16.06333673174764
 31
0.0
 12
-9.0786821489710956
 22
16.021716168696791
 32
0.0
 13
-9.0786821489710956
 23
16.021716168696791
 33
0.0
210
0.0
220
0.0
230
-1.0
  0
SOLID
  5
D85
  8
0
  6
CONTINUOUS
 62
    14
 10
8.9458947136586406
 20
16.021716168696791
 30
0.0
 11
8.5452944649965552
 21
15.41906175951941
 31
0.0
 12
8.7744315156326742
 22
15.41906175951941
 32
0.0
 13
8.7744315156326742
 23
15.41906175951941
 33
0.0
  0
SOLID
  5
D86
  8
0
  6
CONTINUOUS
 62
    14
 10
-8.9458947136586406
 20
16.021716168696791
 30
0.0
 11
-9.0786821489710956
 21
16.021716168696791
 31
0.0
 12
-8.7744315156326742
 22
15.41906175951941
 32
0.0
 13
-8.7744315156326742
 23
15.41906175951941
 33
0.0
210
0.0
220
0.0
230
-1.0
  0
SOLID
  5
D87
  8
0
  6
CONTINUOUS
 62
    14
 10
8.5452944649965552
 20
15.41906175951941
 30
0.0
 11
8.4753889197775187
 21
15.313897358865891
 31
0.0
 12
8.7458512783513598
 22
15.313897358865891
 32
0.0
 13
8.7458512783513598
 23
15.313897358865891
 33
0.0
  0
SOLID
  5
D88
  8
0
  6
CONTINUOUS
 62
    14
 10
-8.5452944649965552
 20
15.41906175951941
 30
0.0
 11
-8.7744315156326742
 21
15.41906175951941
 31
0.0
 12
-8.7458512783513598
 22
15.313897358865891
 32
0.0
 13
-8.7458512783513598
 23
15.313897358865891
 33
0.0
210
0.0
220
0.0
230
-1.0
  0
SOLID
  5
D89
  8
0
  6
CONTINUOUS
 62
    14
 10
8.4753889197775187
 20
15.313897358865891
 30
0.0
 11
8.2264165184088984
 21
14.703760410211469
 31
0.0
 12
8.5800360532535365
 22
14.703760410211469
 32
0.0
 13
8.5800360532535365
 23
14.703760410211469
 33
0.0
210
0.0
220
0.0
230
1.0
  0
SOLID
  5
D8A
  8
0
  6
CONTINUOUS
 62
    14
 10
-8.4753889197775187
 20
15.313897358865891
 30
0.0
 11
-8.7458512783513598
 21
15.313897358865891
 31
0.0
 12
-8.5800360532535365
 22
14.703760410211469
 32
0.0
 13
-8.5800360532535365
 23
14.703760410211469
 33
0.0
210
0.0
220
0.0
230
-1.0
  0
SOLID
  5
D8B
  8
0
  6
CONTINUOUS
 62
    14
 10
8.2264165184088984
 20
14.703760410211469
 30
0.0
 11
8.1505203542444722
 21
14.517767690683909
 31
0.0
 12
8.5660192220222182
 22
14.517767690683909
 32
0.0
 13
8.5660192220222182
 23
14.517767690683909
 33
0.0
210
0.0
220
0.0
230
1.0
  0
SOLID
  5
D8C
  8
0
  6
CONTINUOUS
 62
    14
 10
-8.2264165184088984
 20
14.703760410211469
 30
0.0
 11
-8.5800360532535365
 21
14.703760410211469
 31
0.0
 12
-8.5660192220222182
 22
14.517767690683909
 32
0.0
 13
-8.5660192220222182
 23
14.517767690683909
 33
0.0
210
0.0
220
0.0
230
-1.0
  0
SOLID
  5
D8D
  8
0
  6
CONTINUOUS
 62
    14
 10
8.1505203542444722
 20
14.517767690683909
 30
0.0
 11
8.0370434606507128
 21
13.93916675336259
 31
0.0
 12
8.5224145491655801
 22
13.93916675336259
 32
0.0
 13
8.5224145491655801
 23
13.93916675336259
 33
0.0
210
0.0
220
0.0
230
1.0
  0
SOLID
  5
D8E
  8
0
  6
CONTINUOUS
 62
    14
 10
-8.1505203542444722
 20
14.517767690683909
 30
0.0
 11
-8.5660192220222182
 21
14.517767690683909
 31
0.0
 12
-8.5224145491655801
 22
13.93916675336259
 32
0.0
 13
-8.5224145491655801
 23
13.93916675336259
 33
0.0
210
0.0
220
0.0
230
-1.0
  0
SOLID
  5
D8F
  8
0
  6
CONTINUOUS
 62
    14
 10
8.0370434606507128
 20
13.93916675336259
 30
0.0
 11
7.9824028995694318
 21
13.660563075942839
 31
0.0
 12
8.5509225175960868
 22
13.660563075942839
 32
0.0
 13
8.5509225175960868
 23
13.660563075942839
 33
0.0
210
0.0
220
0.0
230
1.0
  0
SOLID
  5
D90
  8
0
  6
CONTINUOUS
 62
    14
 10
-8.0370434606507128
 20
13.93916675336259
 30
0.0
 11
-8.5224145491655801
 21
13.93916675336259
 31
0.0
 12
-8.5509225175960868
 22
13.660563075942839
 32
0.0
 13
-8.5509225175960868
 23
13.660563075942839
 33
0.0
210
0.0
220
0.0
230
-1.0
  0
SOLID
  5
D91
  8
0
  6
CONTINUOUS
 62
    14
 10
7.9824028995694318
 20
13.660563075942839
 30
0.0
 11
7.9791685905219438
 21
13.14851258033306
 31
0.0
 12
8.6033178036126312
 22
13.14851258033306
 32
0.0
 13
8.6033178036126312
 23
13.14851258033306
 33
0.0
210
0.0
220
0.0
230
1.0
  0
SOLID
  5
D92
  8
0
  6
CONTINUOUS
 62
    14
 10
-7.9824028995694318
 20
13.660563075942839
 30
0.0
 11
-8.5509225175960868
 21
13.660563075942839
 31
0.0
 12
-8.6033178036126312
 22
13.14851258033306
 32
0.0
 13
-8.6033178036126312
 23
13.14851258033306
 33
0.0
210
0.0
220
0.0
230
-1.0
  0
SOLID
  5
D93
  8
0
  6
CONTINUOUS
 62
    14
 10
7.9791685905219438
 20
13.14851258033306
 30
0.0
 11
7.9767879205729919
 21
12.771608824586281
 31
0.0
 12
8.7064812422011357
 22
12.771608824586281
 32
0.0
 13
8.7064812422011357
 23
12.771608824586281
 33
0.0
210
0.0
220
0.0
230
1.0
  0
SOLID
  5
D94
  8
0
  6
CONTINUOUS
 62
    14
 10
-7.9791685905219438
 20
13.14851258033306
 30
0.0
 11
-8.6033178036126312
 21
13.14851258033306
 31
0.0
 12
-8.7064812422011357
 22
12.771608824586281
 32
0.0
 13
-8.7064812422011357
 23
12.771608824586281
 33
0.0
210
0.0
220
0.0
230
-1.0
  0
SOLID
  5
D95
  8
0
  6
CONTINUOUS
 62
    14
 10
7.9767879205729919
 20
12.771608824586281
 30
0.0
 11
8.0501477490601445
 21
12.35582151808007
 31
0.0
 12
8.8202876121473395
 22
12.35582151808007
 32
0.0
 13
8.8202876121473395
 23
12.35582151808007
 33
0.0
210
0.0
220
0.0
230
1.0
  0
SOLID
  5
D96
  8
0
  6
CONTINUOUS
 62
    14
 10
-7.9767879205729919
 20
12.771608824586281
 30
0.0
 11
-8.7064812422011357
 21
12.771608824586281
 31
0.0
 12
-8.8202876121473395
 22
12.35582151808007
 32
0.0
 13
-8.8202876121473395
 23
12.35582151808007
 33
0.0
210
0.0
220
0.0
230
-1.0
  0
SOLID
  5
D97
  8
0
  6
CONTINUOUS
 62
    14
 10
8.0501477490601445
 20
12.35582151808007
 30
0.0
 11
8.1338675079142178
 21
11.881316414222299
 31
0.0
 12
9.0336023287440046
 22
11.881316414222299
 32
0.0
 13
9.0336023287440046
 23
11.881316414222299
 33
0.0
  0
SOLID
  5
D98
  8
0
  6
CONTINUOUS
 62
    14
 10
-8.0501477490601445
 20
12.35582151808007
 30
0.0
 11
-8.8202876121473395
 21
12.35582151808007
 31
0.0
 12
-9.0336023287440046
 22
11.881316414222299
 32
0.0
 13
-9.0336023287440046
 23
11.881316414222299
 33
0.0
210
0.0
220
0.0
230
-1.0
  0
SOLID
  5
D99
  8
0
  6
CONTINUOUS
 62
    14
 10
8.1338675079142178
 20
11.881316414222299
 30
0.0
 11
8.2419824407460514
 21
11.585179083409139
 31
0.0
 12
9.1667314569293943
 22
11.585179083409139
 32
0.0
 13
9.1667314569293943
 23
11.585179083409139
 33
0.0
  0
SOLID
  5
D9A
  8
0
  6
CONTINUOUS
 62
    14
 10
-8.1338675079142178
 20
11.881316414222299
 30
0.0
 11
-9.0336023287440046
 21
11.881316414222299
 31
0.0
 12
-9.1667314569293943
 22
11.585179083409139
 32
0.0
 13
-9.1667314569293943
 23
11.585179083409139
 33
0.0
210
0.0
220
0.0
230
-1.0
  0
SOLID
  5
D9B
  8
0
  6
CONTINUOUS
 62
    14
 10
8.2419824407460514
 20
11.585179083409139
 30
0.0
 11
8.4482679065929815
 21
11.020143101409509
 31
0.0
 12
9.5293497133850362
 22
11.020143101409509
 32
0.0
 13
9.5293497133850362
 23
11.020143101409509
 33
0.0
210
0.0
220
0.0
230
1.0
  0
SOLID
  5
D9C
  8
0
  6
CONTINUOUS
 62
    14
 10
-8.2419824407460514
 20
11.585179083409139
 30
0.0
 11
-9.1667314569293943
 21
11.585179083409139
 31
0.0
 12
-9.5293497133850362
 22
11.020143101409509
 32
0.0
 13
-9.5293497133850362
 23
11.020143101409509
 33
0.0
210
0.0
220
0.0
230
-1.0
  0
SOLID
  5
D9D
  8
0
  6
CONTINUOUS
 62
    14
 10
8.4482679065929815
 20
11.020143101409509
 30
0.0
 11
8.5402448228203731
 21
10.86000085673386
 31
0.0
 12
9.6321228170441433
 22
10.86000085673386
 32
0.0
 13
9.6321228170441433
 23
10.86000085673386
 33
0.0
210
0.0
220
0.0
230
1.0
  0
SOLID
  5
D9E
  8
0
  6
CONTINUOUS
 62
    14
 10
-8.4482679065929815
 20
11.020143101409509
 30
0.0
 11
-9.5293497133850362
 21
11.020143101409509
 31
0.0
 12
-9.6321228170441433
 22
10.86000085673386
 32
0.0
 13
-9.6321228170441433
 23
10.86000085673386
 33
0.0
210
0.0
220
0.0
230
-1.0
  0
SOLID
  5
D9F
  8
0
  6
CONTINUOUS
 62
    14
 10
8.5402448228203731
 20
10.86000085673386
 30
0.0
 11
8.9092333542404134
 21
10.217549966827031
 31
0.0
 12
10.189117744169859
 22
10.217549966827031
 32
0.0
 13
10.189117744169859
 23
10.217549966827031
 33
0.0
  0
SOLID
  5
DA0
  8
0
  6
CONTINUOUS
 62
    14
 10
-8.5402448228203731
 20
10.86000085673386
 30
0.0
 11
-9.6321228170441433
 21
10.86000085673386
 31
0.0
 12
-10.189117744169859
 22
10.217549966827031
 32
0.0
 13
-10.189117744169859
 23
10.217549966827031
 33
0.0
210
0.0
220
0.0
230
-1.0
  0
SOLID
  5
DA1
  8
0
  6
CONTINUOUS
 62
    14
 10
-8.9218100376541916
 20
10.20232101151389
 30
0.0
 11
-10.20232101151389
 21
10.20232101151389
 31
0.0
 12
-9.5009940400166073
 22
9.5009940400166002
 32
0.0
 13
-9.5009940400166073
 23
9.5009940400166002
 33
0.0
210
0.0
220
0.0
230
-1.0
  0
SOLID
  5
DA2
  8
0
  6
CONTINUOUS
 62
    14
 10
8.9092333542404134
 20
10.217549966827031
 30
0.0
 11
8.9218100376541916
 21
10.20232101151389
 31
0.0
 12
10.20232101151389
 22
10.20232101151389
 32
0.0
 13
10.20232101151389
 23
10.20232101151389
 33
0.0
  0
SOLID
  5
DA3
  8
0
  6
CONTINUOUS
 62
    14
 10
-8.9092333542404134
 20
10.217549966827031
 30
0.0
 11
-10.189117744169859
 21
10.217549966827031
 31
0.0
 12
-10.20232101151389
 22
10.20232101151389
 32
0.0
 13
-10.20232101151389
 23
10.20232101151389
 33
0.0
210
0.0
220
0.0
230
-1.0
  0
LINE
  5
DA4
  8
0
  6
CONTINUOUS
 62
    14
 10
9.5459415460183941
 20
16.617009357883859
 30
0.0
 11
8.9878476327803831
 21
16.06333673174764
 31
0.0
  0
LINE
  5
DA5
  8
0
  6
CONTINUOUS
 62
    14
 10
9.0996943285474572
 20
16.06333673174764
 30
0.0
 11
9.5459415460183941
 21
16.617009357883859
 31
0.0
  0
LINE
  5
DA6
  8
0
  6
CONTINUOUS
 62
    14
 10
8.9878476327803831
 20
16.06333673174764
 30
0.0
 11
8.9458947136586406
 21
16.021716168696791
 31
0.0
  0
LINE
  5
DA7
  8
0
  6
CONTINUOUS
 62
    14
 10
9.0996943285474572
 20
16.06333673174764
 30
0.0
 11
9.0786821489710956
 21
16.021716168696791
 31
0.0
  0
LINE
  5
DA8
  8
0
  6
CONTINUOUS
 62
    14
 10
8.9458947136586406
 20
16.021716168696791
 30
0.0
 11
8.5452944649965552
 21
15.41906175951941
 31
0.0
  0
LINE
  5
DA9
  8
0
  6
CONTINUOUS
 62
    14
 10
9.0786821489710956
 20
16.021716168696791
 30
0.0
 11
8.7744315156326742
 21
15.41906175951941
 31
0.0
  0
LINE
  5
DAA
  8
0
  6
CONTINUOUS
 62
    14
 10
8.5452944649965552
 20
15.41906175951941
 30
0.0
 11
8.4753889197775187
 21
15.313897358865891
 31
0.0
  0
LINE
  5
DAB
  8
0
  6
CONTINUOUS
 62
    14
 10
8.7744315156326742
 20
15.41906175951941
 30
0.0
 11
8.7458512783513598
 21
15.313897358865891
 31
0.0
  0
LINE
  5
DAC
  8
0
  6
CONTINUOUS
 62
    14
 10
8.4753889197775187
 20
15.313897358865891
 30
0.0
 11
8.2264165184088984
 21
14.703760410211469
 31
0.0
  0
LINE
  5
DAD
  8
0
  6
CONTINUOUS
 62
    14
 10
8.7458512783513598
 20
15.313897358865891
 30
0.0
 11
8.5800360532535365
 21
14.703760410211469
 31
0.0
  0
LINE
  5
DAE
  8
0
  6
CONTINUOUS
 62
    14
 10
8.2264165184088984
 20
14.703760410211469
 30
0.0
 11
8.1505203542444722
 21
14.517767690683909
 31
0.0
  0
LINE
  5
DAF
  8
0
  6
CONTINUOUS
 62
    14
 10
8.5800360532535365
 20
14.703760410211469
 30
0.0
 11
8.5660192220222182
 21
14.517767690683909
 31
0.0
  0
LINE
  5
DB0
  8
0
  6
CONTINUOUS
 62
    14
 10
8.1505203542444722
 20
14.517767690683909
 30
0.0
 11
8.0370434606507128
 21
13.93916675336259
 31
0.0
  0
LINE
  5
DB1
  8
0
  6
CONTINUOUS
 62
    14
 10
8.5660192220222182
 20
14.517767690683909
 30
0.0
 11
8.5224145491655801
 21
13.93916675336259
 31
0.0
  0
LINE
  5
DB2
  8
0
  6
CONTINUOUS
 62
    14
 10
8.0370434606507128
 20
13.93916675336259
 30
0.0
 11
7.9824028995694318
 21
13.660563075942839
 31
0.0
  0
LINE
  5
DB3
  8
0
  6
CONTINUOUS
 62
    14
 10
8.5224145491655801
 20
13.93916675336259
 30
0.0
 11
8.5509225175960868
 21
13.660563075942839
 31
0.0
  0
LINE
  5
DB4
  8
0
  6
CONTINUOUS
 62
    14
 10
7.9824028995694318
 20
13.660563075942839
 30
0.0
 11
7.9791685905219438
 21
13.14851258033306
 31
0.0
  0
LINE
  5
DB5
  8
0
  6
CONTINUOUS
 62
    14
 10
8.5509225175960868
 20
13.660563075942839
 30
0.0
 11
8.6033178036126312
 21
13.14851258033306
 31
0.0
  0
LINE
  5
DB6
  8
0
  6
CONTINUOUS
 62
    14
 10
7.9791685905219438
 20
13.14851258033306
 30
0.0
 11
7.9767879205729919
 21
12.771608824586281
 31
0.0
  0
LINE
  5
DB7
  8
0
  6
CONTINUOUS
 62
    14
 10
8.6033178036126312
 20
13.14851258033306
 30
0.0
 11
8.7064812422011357
 21
12.771608824586281
 31
0.0
  0
LINE
  5
DB8
  8
0
  6
CONTINUOUS
 62
    14
 10
7.9767879205729919
 20
12.771608824586281
 30
0.0
 11
8.0501477490601445
 21
12.35582151808007
 31
0.0
  0
LINE
  5
DB9
  8
0
  6
CONTINUOUS
 62
    14
 10
8.7064812422011357
 20
12.771608824586281
 30
0.0
 11
8.8202876121473395
 21
12.35582151808007
 31
0.0
  0
LINE
  5
DBA
  8
0
  6
CONTINUOUS
 62
    14
 10
8.0501477490601445
 20
12.35582151808007
 30
0.0
 11
8.1338675079142178
 21
11.881316414222299
 31
0.0
  0
LINE
  5
DBB
  8
0
  6
CONTINUOUS
 62
    14
 10
8.8202876121473395
 20
12.35582151808007
 30
0.0
 11
9.0336023287440046
 21
11.881316414222299
 31
0.0
  0
LINE
  5
DBC
  8
0
  6
CONTINUOUS
 62
    14
 10
8.1338675079142178
 20
11.881316414222299
 30
0.0
 11
8.2419824407460514
 21
11.585179083409139
 31
0.0
  0
LINE
  5
DBD
  8
0
  6
CONTINUOUS
 62
    14
 10
9.0336023287440046
 20
11.881316414222299
 30
0.0
 11
9.1667314569293943
 21
11.585179083409139
 31
0.0
  0
LINE
  5
DBE
  8
0
  6
CONTINUOUS
 62
    14
 10
8.2419824407460514
 20
11.585179083409139
 30
0.0
 11
8.4482679065929815
 21
11.020143101409509
 31
0.0
  0
LINE
  5
DBF
  8
0
  6
CONTINUOUS
 62
    14
 10
9.1667314569293943
 20
11.585179083409139
 30
0.0
 11
9.5293497133850362
 21
11.020143101409509
 31
0.0
  0
LINE
  5
DC0
  8
0
  6
CONTINUOUS
 62
    14
 10
8.4482679065929815
 20
11.020143101409509
 30
0.0
 11
8.5402448228203731
 21
10.86000085673386
 31
0.0
  0
LINE
  5
DC1
  8
0
  6
CONTINUOUS
 62
    14
 10
9.5293497133850362
 20
11.020143101409509
 30
0.0
 11
9.6321228170441433
 21
10.86000085673386
 31
0.0
  0
LINE
  5
DC2
  8
0
  6
CONTINUOUS
 62
    14
 10
8.5402448228203731
 20
10.86000085673386
 30
0.0
 11
8.9092333542404134
 21
10.217549966827031
 31
0.0
  0
LINE
  5
DC3
  8
0
  6
CONTINUOUS
 62
    14
 10
9.6321228170441433
 20
10.86000085673386
 30
0.0
 11
10.189117744169859
 21
10.217549966827031
 31
0.0
  0
LINE
  5
DC4
  8
0
  6
CONTINUOUS
 62
    14
 10
10.20232101151389
 20
10.20232101151389
 30
0.0
 11
9.5009940400166073
 21
9.5009940400166002
 31
0.0
  0
LINE
  5
DC5
  8
0
  6
CONTINUOUS
 62
    14
 10
9.5009940400166073
 20
9.5009940400166002
 30
0.0
 11
8.9218100376541916
 21
10.20232101151389
 31
0.0
  0
LINE
  5
DC6
  8
0
  6
CONTINUOUS
 62
    14
 10
8.9092333542404134
 20
10.217549966827031
 30
0.0
 11
8.9218100376541916
 21
10.20232101151389
 31
0.0
  0
LINE
  5
DC7
  8
0
  6
CONTINUOUS
 62
    14
 10
10.189117744169859
 20
10.217549966827031
 30
0.0
 11
10.20232101151389
 21
10.20232101151389
 31
0.0
  0
ENDBLK
  5
DC9
  8
0
  0
BLOCK
  8
0
  2
*U18
 70
     1
 10
0.0
 20
0.0
 30
0.0
  3
*U18
  1

  0
SOLID
  5
DCB
  8
0
  6
CONTINUOUS
 62
    12
 10
7.9620276993582637
 20
13.085418729976791
 30
0.0
 11
7.3234451534659648
 21
12.502686364512639
 31
0.0
 12
7.7260530523303359
 22
12.502686364512639
 32
0.0
 13
7.7260530523303359
 23
12.502686364512639
 33
0.0
210
0.0
220
0.0
230
1.0
  0
SOLID
  5
DCC
  8
0
  6
CONTINUOUS
 62
    12
 10
7.3234451534659648
 20
12.502686364512639
 30
0.0
 11
6.6352139105341319
 21
11.874647557689951
 31
0.0
 12
7.6101021171157361
 22
11.874647557689951
 32
0.0
 13
7.6101021171157361
 23
11.874647557689951
 33
0.0
210
0.0
220
0.0
230
1.0
  0
SOLID
  5
DCD
  8
0
  6
CONTINUOUS
 62
    12
 10
-7.3234451534659648
 20
12.502686364512639
 30
0.0
 11
-7.7260530523303359
 21
12.502686364512639
 31
0.0
 12
-7.6101021171157361
 22
11.874647557689951
 32
0.0
 13
-7.6101021171157361
 23
11.874647557689951
 33
0.0
210
0.0
220
0.0
230
-1.0
  0
SOLID
  5
DCE
  8
0
  6
CONTINUOUS
 62
    12
 10
6.6352139105341319
 20
11.874647557689951
 30
0.0
 11
6.0146099189682181
 21
11.30832134920211
 31
0.0
 12
7.6171013192580341
 22
11.30832134920211
 32
0.0
 13
7.6171013192580341
 23
11.30832134920211
 33
0.0
210
0.0
220
0.0
230
1.0
  0
SOLID
  5
DCF
  8
0
  6
CONTINUOUS
 62
    12
 10
-6.6352139105341319
 20
11.874647557689951
 30
0.0
 11
-7.6101021171157361
 21
11.874647557689951
 31
0.0
 12
-7.6171013192580341
 22
11.30832134920211
 32
0.0
 13
-7.6171013192580341
 23
11.30832134920211
 33
0.0
210
0.0
220
0.0
230
-1.0
  0
SOLID
  5
DD0
  8
0
  6
CONTINUOUS
 62
    12
 10
6.0146099189682181
 20
11.30832134920211
 30
0.0
 11
5.943956632866831
 21
11.22287307347732
 31
0.0
 12
7.618157370956764
 22
11.22287307347732
 32
0.0
 13
7.618157370956764
 23
11.22287307347732
 33
0.0
210
0.0
220
0.0
230
1.0
  0
SOLID
  5
DD1
  8
0
  6
CONTINUOUS
 62
    12
 10
-6.0146099189682181
 20
11.30832134920211
 30
0.0
 11
-7.6171013192580341
 21
11.30832134920211
 31
0.0
 12
-7.618157370956764
 22
11.22287307347732
 32
0.0
 13
-7.618157370956764
 23
11.22287307347732
 33
0.0
210
0.0
220
0.0
230
-1.0
  0
SOLID
  5
DD2
  8
0
  6
CONTINUOUS
 62
    12
 10
5.943956632866831
 20
11.22287307347732
 30
0.0
 11
5.6305491238885921
 21
10.84383718259229
 31
0.0
 12
7.6946377130821544
 22
10.84383718259229
 32
0.0
 13
7.6946377130821544
 23
10.84383718259229
 33
0.0
  0
SOLID
  5
DD3
  8
0
  6
CONTINUOUS
 62
    12
 10
-5.943956632866831
 20
11.22287307347732
 30
0.0
 11
-7.618157370956764
 21
11.22287307347732
 31
0.0
 12
-7.6946377130821544
 22
10.84383718259229
 32
0.0
 13
-7.6946377130821544
 23
10.84383718259229
 33
0.0
210
0.0
220
0.0
230
-1.0
  0
SOLID
  5
DD4
  8
0
  6
CONTINUOUS
 62
    12
 10
5.6305491238885921
 20
10.84383718259229
 30
0.0
 11
5.4797845653268977
 21
10.56974890682757
 31
0.0
 12
7.7499421462694658
 22
10.56974890682757
 32
0.0
 13
7.7499421462694658
 23
10.56974890682757
 33
0.0
210
0.0
220
0.0
230
1.0
  0
SOLID
  5
DD5
  8
0
  6
CONTINUOUS
 62
    12
 10
-5.6305491238885921
 20
10.84383718259229
 30
0.0
 11
-7.6946377130821544
 21
10.84383718259229
 31
0.0
 12
-7.7499421462694658
 22
10.56974890682757
 32
0.0
 13
-7.7499421462694658
 23
10.56974890682757
 33
0.0
210
0.0
220
0.0
230
-1.0
  0
SOLID
  5
DD6
  8
0
  6
CONTINUOUS
 62
    12
 10
5.4797845653268977
 20
10.56974890682757
 30
0.0
 11
5.3385811932535159
 21
10.31304276081435
 31
0.0
 12
7.8518819066241523
 22
10.31304276081435
 32
0.0
 13
7.8518819066241523
 23
10.31304276081435
 33
0.0
210
0.0
220
0.0
230
1.0
  0
SOLID
  5
DD7
  8
0
  6
CONTINUOUS
 62
    12
 10
-5.4797845653268977
 20
10.56974890682757
 30
0.0
 11
-7.7499421462694658
 21
10.56974890682757
 31
0.0
 12
-7.8518819066241523
 22
10.31304276081435
 32
0.0
 13
-7.8518819066241523
 23
10.31304276081435
 33
0.0
210
0.0
220
0.0
230
-1.0
  0
SOLID
  5
DD8
  8
0
  6
CONTINUOUS
 62
    12
 10
5.3385811932535159
 20
10.31304276081435
 30
0.0
 11
5.2151847480593299
 21
9.9377074091940703
 31
0.0
 12
8.0009301331315203
 22
9.9377074091940703
 32
0.0
 13
8.0009301331315203
 23
9.9377074091940703
 33
0.0
210
0.0
220
0.0
230
1.0
  0
SOLID
  5
DD9
  8
0
  6
CONTINUOUS
 62
    12
 10
-5.3385811932535159
 20
10.31304276081435
 30
0.0
 11
-7.8518819066241523
 21
10.31304276081435
 31
0.0
 12
-8.0009301331315203
 22
9.9377074091940703
 32
0.0
 13
-8.0009301331315203
 23
9.9377074091940703
 33
0.0
210
0.0
220
0.0
230
-1.0
  0
SOLID
  5
DDA
  8
0
  6
CONTINUOUS
 62
    12
 10
5.2151847480593299
 20
9.9377074091940703
 30
0.0
 11
5.147577424892452
 21
9.7320660037790852
 31
0.0
 12
8.1271139844739153
 22
9.7320660037790852
 32
0.0
 13
8.1271139844739153
 23
9.7320660037790852
 33
0.0
210
0.0
220
0.0
230
1.0
  0
SOLID
  5
DDB
  8
0
  6
CONTINUOUS
 62
    12
 10
-5.2151847480593299
 20
9.9377074091940703
 30
0.0
 11
-8.0009301331315203
 21
9.9377074091940703
 31
0.0
 12
-8.1271139844739153
 22
9.7320660037790852
 32
0.0
 13
-8.1271139844739153
 23
9.7320660037790852
 33
0.0
210
0.0
220
0.0
230
-1.0
  0
SOLID
  5
DDC
  8
0
  6
CONTINUOUS
 62
    12
 10
5.147577424892452
 20
9.7320660037790852
 30
0.0
 11
5.0949068690949044
 21
9.3484568218760895
 31
0.0
 12
8.3625008409542172
 22
9.3484568218760895
 32
0.0
 13
8.3625008409542172
 23
9.3484568218760895
 33
0.0
210
0.0
220
0.0
230
1.0
  0
SOLID
  5
DDD
  8
0
  6
CONTINUOUS
 62
    12
 10
-5.147577424892452
 20
9.7320660037790852
 30
0.0
 11
-8.1271139844739153
 21
9.7320660037790852
 31
0.0
 12
-8.3625008409542172
 22
9.3484568218760895
 32
0.0
 13
-8.3625008409542172
 23
9.3484568218760895
 33
0.0
210
0.0
220
0.0
230
-1.0
  0
SOLID
  5
DDE
  8
0
  6
CONTINUOUS
 62
    12
 10
5.0949068690949044
 20
9.3484568218760895
 30
0.0
 11
5.0633413716544799
 21
9.1185595962605994
 31
0.0
 12
8.5633513114609343
 22
9.1185595962605994
 32
0.0
 13
8.5633513114609343
 23
9.1185595962605994
 33
0.0
210
0.0
220
0.0
230
1.0
  0
SOLID
  5
DDF
  8
0
  6
CONTINUOUS
 62
    12
 10
-5.0949068690949044
 20
9.3484568218760895
 30
0.0
 11
-8.3625008409542172
 21
9.3484568218760895
 31
0.0
 12
-8.5633513114609343
 22
9.1185595962605994
 32
0.0
 13
-8.5633513114609343
 23
9.1185595962605994
 33
0.0
210
0.0
220
0.0
230
-1.0
  0
SOLID
  5
DE0
  8
0
  6
CONTINUOUS
 62
    12
 10
5.0633413716544799
 20
9.1185595962605994
 30
0.0
 11
5.0751921239010747
 21
8.8222356798165578
 31
0.0
 12
8.8222356798165649
 22
8.8222356798165578
 32
0.0
 13
8.8222356798165649
 23
8.8222356798165578
 33
0.0
210
0.0
220
0.0
230
1.0
  0
SOLID
  5
DE1
  8
0
  6
CONTINUOUS
 62
    12
 10
-5.0633413716544799
 20
9.1185595962605994
 30
0.0
 11
-8.5633513114609343
 21
9.1185595962605994
 31
0.0
 12
-8.8222356798165649
 22
8.8222356798165578
 32
0.0
 13
-8.8222356798165649
 23
8.8222356798165578
 33
0.0
210
0.0
220
0.0
230
-1.0
  0
SOLID
  5
DE2
  8
0
  6
CONTINUOUS
 62
    12
 10
5.0751921239010747
 20
8.8222356798165578
 30
0.0
 11
5.0884325033917372
 21
8.4911646200021185
 31
0.0
 12
8.4911646200021238
 22
8.4911646200021185
 32
0.0
 13
8.4911646200021238
 23
8.4911646200021185
 33
0.0
210
0.0
220
0.0
230
1.0
  0
SOLID
  5
DE3
  8
0
  6
CONTINUOUS
 62
    12
 10
-5.0751921239010747
 20
8.8222356798165578
 30
0.0
 11
-8.8222356798165649
 21
8.8222356798165578
 31
0.0
 12
-8.4911646200021238
 22
8.4911646200021185
 32
0.0
 13
-8.4911646200021238
 23
8.4911646200021185
 33
0.0
210
0.0
220
0.0
230
-1.0
  0
SOLID
  5
DE4
  8
0
  6
CONTINUOUS
 62
    12
 10
5.0884325033917372
 20
8.4911646200021185
 30
0.0
 11
5.2220884387631097
 21
7.8689441538800811
 31
0.0
 12
7.8689441538800811
 22
7.8689441538800811
 32
0.0
 13
7.8689441538800811
 23
7.8689441538800811
 33
0.0
210
0.0
220
0.0
230
1.0
  0
SOLID
  5
DE5
  8
0
  6
CONTINUOUS
 62
    12
 10
-5.0884325033917372
 20
8.4911646200021185
 30
0.0
 11
-8.4911646200021238
 21
8.4911646200021185
 31
0.0
 12
-7.8689441538800811
 22
7.8689441538800811
 32
0.0
 13
-7.8689441538800811
 23
7.8689441538800811
 33
0.0
210
0.0
220
0.0
230
-1.0
  0
SOLID
  5
DE6
  8
0
  6
CONTINUOUS
 62
    12
 10
5.2220884387631097
 20
7.8689441538800811
 30
0.0
 11
5.4602481098055078
 21
7.270804051898855
 31
0.0
 12
7.2708040518988524
 22
7.270804051898855
 32
0.0
 13
7.2708040518988524
 23
7.270804051898855
 33
0.0
210
0.0
220
0.0
230
1.0
  0
SOLID
  5
DE7
  8
0
  6
CONTINUOUS
 62
    12
 10
-5.2220884387631097
 20
7.8689441538800811
 30
0.0
 11
-7.8689441538800811
 21
7.8689441538800811
 31
0.0
 12
-7.2708040518988524
 22
7.270804051898855
 32
0.0
 13
-7.2708040518988524
 23
7.270804051898855
 33
0.0
210
0.0
220
0.0
230
-1.0
  0
SOLID
  5
DE8
  8
0
  6
CONTINUOUS
 62
    12
 10
-5.7956751554289161
 20
6.7149184983836463
 30
0.0
 11
-6.7149184983836392
 21
6.7149184983836463
 31
0.0
 12
-6.2181777945863406
 22
6.2181777945863512
 32
0.0
 13
-6.2181777945863406
 23
6.2181777945863512
 33
0.0
210
0.0
220
0.0
230
-1.0
  0
SOLID
  5
DE9
  8
0
  6
CONTINUOUS
 62
    12
 10
5.4602481098055078
 20
7.270804051898855
 30
0.0
 11
5.7956751554289161
 21
6.7149184983836463
 31
0.0
 12
6.7149184983836392
 22
6.7149184983836463
 32
0.0
 13
6.7149184983836392
 23
6.7149184983836463
 33
0.0
210
0.0
220
0.0
230
1.0
  0
SOLID
  5
DEA
  8
0
  6
CONTINUOUS
 62
    12
 10
-5.4602481098055078
 20
7.270804051898855
 30
0.0
 11
-7.2708040518988524
 21
7.270804051898855
 31
0.0
 12
-6.7149184983836392
 22
6.7149184983836463
 32
0.0
 13
-6.7149184983836392
 23
6.7149184983836463
 33
0.0
210
0.0
220
0.0
230
-1.0
  0
LINE
  5
DEB
  8
0
  6
CONTINUOUS
 62
    12
 10
7.9620276993582637
 20
13.085418729976791
 30
0.0
 11
7.3234451534659648
 21
12.502686364512639
 31
0.0
  0
LINE
  5
DEC
  8
0
  6
CONTINUOUS
 62
    12
 10
7.7260530523303359
 20
12.502686364512639
 30
0.0
 11
7.9620276993582637
 21
13.085418729976791
 31
0.0
  0
LINE
  5
DED
  8
0
  6
CONTINUOUS
 62
    12
 10
7.3234451534659648
 20
12.502686364512639
 30
0.0
 11
6.6352139105341319
 21
11.874647557689951
 31
0.0
  0
LINE
  5
DEE
  8
0
  6
CONTINUOUS
 62
    12
 10
7.7260530523303359
 20
12.502686364512639
 30
0.0
 11
7.6101021171157361
 21
11.874647557689951
 31
0.0
  0
LINE
  5
DEF
  8
0
  6
CONTINUOUS
 62
    12
 10
6.6352139105341319
 20
11.874647557689951
 30
0.0
 11
6.0146099189682181
 21
11.30832134920211
 31
0.0
  0
LINE
  5
DF0
  8
0
  6
CONTINUOUS
 62
    12
 10
7.6101021171157361
 20
11.874647557689951
 30
0.0
 11
7.6171013192580341
 21
11.30832134920211
 31
0.0
  0
LINE
  5
DF1
  8
0
  6
CONTINUOUS
 62
    12
 10
6.0146099189682181
 20
11.30832134920211
 30
0.0
 11
5.943956632866831
 21
11.22287307347732
 31
0.0
  0
LINE
  5
DF2
  8
0
  6
CONTINUOUS
 62
    12
 10
7.6171013192580341
 20
11.30832134920211
 30
0.0
 11
7.618157370956764
 21
11.22287307347732
 31
0.0
  0
LINE
  5
DF3
  8
0
  6
CONTINUOUS
 62
    12
 10
5.943956632866831
 20
11.22287307347732
 30
0.0
 11
5.6305491238885921
 21
10.84383718259229
 31
0.0
  0
LINE
  5
DF4
  8
0
  6
CONTINUOUS
 62
    12
 10
7.618157370956764
 20
11.22287307347732
 30
0.0
 11
7.6946377130821544
 21
10.84383718259229
 31
0.0
  0
LINE
  5
DF5
  8
0
  6
CONTINUOUS
 62
    12
 10
5.6305491238885921
 20
10.84383718259229
 30
0.0
 11
5.4797845653268977
 21
10.56974890682757
 31
0.0
  0
LINE
  5
DF6
  8
0
  6
CONTINUOUS
 62
    12
 10
7.6946377130821544
 20
10.84383718259229
 30
0.0
 11
7.7499421462694658
 21
10.56974890682757
 31
0.0
  0
LINE
  5
DF7
  8
0
  6
CONTINUOUS
 62
    12
 10
5.4797845653268977
 20
10.56974890682757
 30
0.0
 11
5.3385811932535159
 21
10.31304276081435
 31
0.0
  0
LINE
  5
DF8
  8
0
  6
CONTINUOUS
 62
    12
 10
7.7499421462694658
 20
10.56974890682757
 30
0.0
 11
7.8518819066241523
 21
10.31304276081435
 31
0.0
  0
LINE
  5
DF9
  8
0
  6
CONTINUOUS
 62
    12
 10
5.3385811932535159
 20
10.31304276081435
 30
0.0
 11
5.2151847480593299
 21
9.9377074091940703
 31
0.0
  0
LINE
  5
DFA
  8
0
  6
CONTINUOUS
 62
    12
 10
7.8518819066241523
 20
10.31304276081435
 30
0.0
 11
8.0009301331315203
 21
9.9377074091940703
 31
0.0
  0
LINE
  5
DFB
  8
0
  6
CONTINUOUS
 62
    12
 10
5.2151847480593299
 20
9.9377074091940703
 30
0.0
 11
5.147577424892452
 21
9.7320660037790852
 31
0.0
  0
LINE
  5
DFC
  8
0
  6
CONTINUOUS
 62
    12
 10
8.0009301331315203
 20
9.9377074091940703
 30
0.0
 11
8.1271139844739153
 21
9.7320660037790852
 31
0.0
  0
LINE
  5
DFD
  8
0
  6
CONTINUOUS
 62
    12
 10
5.147577424892452
 20
9.7320660037790852
 30
0.0
 11
5.0949068690949044
 21
9.3484568218760895
 31
0.0
  0
LINE
  5
DFE
  8
0
  6
CONTINUOUS
 62
    12
 10
8.1271139844739153
 20
9.7320660037790852
 30
0.0
 11
8.3625008409542172
 21
9.3484568218760895
 31
0.0
  0
LINE
  5
DFF
  8
0
  6
CONTINUOUS
 62
    12
 10
5.0949068690949044
 20
9.3484568218760895
 30
0.0
 11
5.0633413716544799
 21
9.1185595962605994
 31
0.0
  0
LINE
  5
E00
  8
0
  6
CONTINUOUS
 62
    12
 10
8.3625008409542172
 20
9.3484568218760895
 30
0.0
 11
8.5633513114609343
 21
9.1185595962605994
 31
0.0
  0
LINE
  5
E01
  8
0
  6
CONTINUOUS
 62
    12
 10
5.0633413716544799
 20
9.1185595962605994
 30
0.0
 11
5.0751921239010747
 21
8.8222356798165578
 31
0.0
  0
LINE
  5
E02
  8
0
  6
CONTINUOUS
 62
    12
 10
8.5633513114609343
 20
9.1185595962605994
 30
0.0
 11
8.8222356798165649
 21
8.8222356798165578
 31
0.0
  0
LINE
  5
E03
  8
0
  6
CONTINUOUS
 62
    12
 10
5.0751921239010747
 20
8.8222356798165578
 30
0.0
 11
5.0884325033917372
 21
8.4911646200021185
 31
0.0
  0
LINE
  5
E04
  8
0
  6
CONTINUOUS
 62
    12
 10
8.8222356798165649
 20
8.8222356798165578
 30
0.0
 11
8.4911646200021238
 21
8.4911646200021185
 31
0.0
  0
LINE
  5
E05
  8
0
  6
CONTINUOUS
 62
    12
 10
5.0884325033917372
 20
8.4911646200021185
 30
0.0
 11
5.2220884387631097
 21
7.8689441538800811
 31
0.0
  0
LINE
  5
E06
  8
0
  6
CONTINUOUS
 62
    12
 10
8.4911646200021238
 20
8.4911646200021185
 30
0.0
 11
7.8689441538800811
 21
7.8689441538800811
 31
0.0
  0
LINE
  5
E07
  8
0
  6
CONTINUOUS
 62
    12
 10
5.2220884387631097
 20
7.8689441538800811
 30
0.0
 11
5.4602481098055078
 21
7.270804051898855
 31
0.0
  0
LINE
  5
E08
  8
0
  6
CONTINUOUS
 62
    12
 10
7.8689441538800811
 20
7.8689441538800811
 30
0.0
 11
7.2708040518988524
 21
7.270804051898855
 31
0.0
  0
LINE
  5
E09
  8
0
  6
CONTINUOUS
 62
    12
 10
6.7149184983836392
 20
6.7149184983836463
 30
0.0
 11
6.2181777945863406
 21
6.2181777945863512
 31
0.0
  0
LINE
  5
E0A
  8
0
  6
CONTINUOUS
 62
    12
 10
6.2181777945863406
 20
6.2181777945863512
 30
0.0
 11
5.7956751554289161
 21
6.7149184983836463
 31
0.0
  0
LINE
  5
E0B
  8
0
  6
CONTINUOUS
 62
    12
 10
5.4602481098055078
 20
7.270804051898855
 30
0.0
 11
5.7956751554289161
 21
6.7149184983836463
 31
0.0
  0
LINE
  5
E0C
  8
0
  6
CONTINUOUS
 62
    12
 10
7.2708040518988524
 20
7.270804051898855
 30
0.0
 11
6.7149184983836392
 21
6.7149184983836463
 31
0.0
  0
ENDBLK
  5
E0E
  8
0
  0
BLOCK
  8
0
  2
*U19
 70
     1
 10
0.0
 20
0.0
 30
0.0
  3
*U19
  1

  0
SOLID
  5
E10
  8
0
  6
CONTINUOUS
 62
    10
 10
6.0146099189681879
 20
11.30832134920211
 30
0.0
 11
5.1729134187847636
 21
11.259765832519181
 31
0.0
 12
5.9744615744533309
 22
11.259765832519181
 32
0.0
 13
5.9744615744533309
 23
11.259765832519181
 33
0.0
210
0.0
220
0.0
230
1.0
  0
SOLID
  5
E11
  8
0
  6
CONTINUOUS
 62
    10
 10
5.1729134187847636
 20
11.259765832519181
 30
0.0
 11
4.3888130564947847
 21
11.04688610220216
 31
0.0
 12
5.7984410244341014
 22
11.04688610220216
 32
0.0
 13
5.7984410244341014
 23
11.04688610220216
 33
0.0
210
0.0
220
0.0
230
1.0
  0
SOLID
  5
E12
  8
0
  6
CONTINUOUS
 62
    10
 10
-5.1729134187847636
 20
11.259765832519181
 30
0.0
 11
-5.9744615744533309
 21
11.259765832519181
 31
0.0
 12
-5.7984410244341014
 22
11.04688610220216
 32
0.0
 13
-5.7984410244341014
 23
11.04688610220216
 33
0.0
210
0.0
220
0.0
230
-1.0
  0
SOLID
  5
E13
  8
0
  6
CONTINUOUS
 62
    10
 10
4.3888130564947847
 20
11.04688610220216
 30
0.0
 11
4.005231815503012
 21
10.84383718259229
 31
0.0
 12
5.6305491238885921
 22
10.84383718259229
 32
0.0
 13
5.6305491238885921
 23
10.84383718259229
 33
0.0
210
0.0
220
0.0
230
1.0
  0
SOLID
  5
E14
  8
0
  6
CONTINUOUS
 62
    10
 10
-4.3888130564947847
 20
11.04688610220216
 30
0.0
 11
-5.7984410244341014
 21
11.04688610220216
 31
0.0
 12
-5.6305491238885921
 22
10.84383718259229
 32
0.0
 13
-5.6305491238885921
 23
10.84383718259229
 33
0.0
210
0.0
220
0.0
230
-1.0
  0
SOLID
  5
E15
  8
0
  6
CONTINUOUS
 62
    10
 10
4.005231815503012
 20
10.84383718259229
 30
0.0
 11
3.6908963213627559
 21
10.677443533322091
 31
0.0
 12
5.5390228993184261
 22
10.677443533322091
 32
0.0
 13
5.5390228993184261
 23
10.677443533322091
 33
0.0
210
0.0
220
0.0
230
1.0
  0
SOLID
  5
E16
  8
0
  6
CONTINUOUS
 62
    10
 10
-4.005231815503012
 20
10.84383718259229
 30
0.0
 11
-5.6305491238885921
 21
10.84383718259229
 31
0.0
 12
-5.5390228993184261
 22
10.677443533322091
 32
0.0
 13
-5.5390228993184261
 23
10.677443533322091
 33
0.0
210
0.0
220
0.0
230
-1.0
  0
SOLID
  5
E17
  8
0
  6
CONTINUOUS
 62
    10
 10
3.6908963213627559
 20
10.677443533322091
 30
0.0
 11
3.2740597324553291
 21
10.31304276081435
 31
0.0
 12
5.3385811932535159
 22
10.31304276081435
 32
0.0
 13
5.3385811932535159
 23
10.31304276081435
 33
0.0
210
0.0
220
0.0
230
1.0
  0
SOLID
  5
E18
  8
0
  6
CONTINUOUS
 62
    10
 10
-3.6908963213627559
 20
10.677443533322091
 30
0.0
 11
-5.5390228993184261
 21
10.677443533322091
 31
0.0
 12
-5.3385811932535159
 22
10.31304276081435
 32
0.0
 13
-5.3385811932535159
 23
10.31304276081435
 33
0.0
210
0.0
220
0.0
230
-1.0
  0
SOLID
  5
E19
  8
0
  6
CONTINUOUS
 62
    10
 10
3.2740597324553291
 20
10.31304276081435
 30
0.0
 11
3.104608536631273
 21
10.164907620320809
 31
0.0
 12
5.2898798128310922
 22
10.164907620320809
 32
0.0
 13
5.2898798128310922
 23
10.164907620320809
 33
0.0
210
0.0
220
0.0
230
1.0
  0
SOLID
  5
E1A
  8
0
  6
CONTINUOUS
 62
    10
 10
-3.2740597324553291
 20
10.31304276081435
 30
0.0
 11
-5.3385811932535159
 21
10.31304276081435
 31
0.0
 12
-5.2898798128310922
 22
10.164907620320809
 32
0.0
 13
-5.2898798128310922
 23
10.164907620320809
 33
0.0
210
0.0
220
0.0
230
-1.0
  0
SOLID
  5
E1B
  8
0
  6
CONTINUOUS
 62
    10
 10
3.104608536631273
 20
10.164907620320809
 30
0.0
 11
2.7965746966200138
 21
9.7320660037790852
 31
0.0
 12
5.147577424892452
 22
9.7320660037790852
 32
0.0
 13
5.147577424892452
 23
9.7320660037790852
 33
0.0
210
0.0
220
0.0
230
1.0
  0
SOLID
  5
E1C
  8
0
  6
CONTINUOUS
 62
    10
 10
-3.104608536631273
 20
10.164907620320809
 30
0.0
 11
-5.2898798128310922
 21
10.164907620320809
 31
0.0
 12
-5.147577424892452
 22
9.7320660037790852
 32
0.0
 13
-5.147577424892452
 23
9.7320660037790852
 33
0.0
210
0.0
220
0.0
230
-1.0
  0
SOLID
  5
E1D
  8
0
  6
CONTINUOUS
 62
    10
 10
2.7965746966200138
 20
9.7320660037790852
 30
0.0
 11
2.6513251493196082
 21
9.5279648931570691
 31
0.0
 12
5.119553802303364
 22
9.5279648931570691
 32
0.0
 13
5.119553802303364
 23
9.5279648931570691
 33
0.0
210
0.0
220
0.0
230
1.0
  0
SOLID
  5
E1E
  8
0
  6
CONTINUOUS
 62
    10
 10
-2.7965746966200138
 20
9.7320660037790852
 30
0.0
 11
-5.147577424892452
 21
9.7320660037790852
 31
0.0
 12
-5.119553802303364
 22
9.5279648931570691
 32
0.0
 13
-5.119553802303364
 23
9.5279648931570691
 33
0.0
210
0.0
220
0.0
230
-1.0
  0
SOLID
  5
E1F
  8
0
  6
CONTINUOUS
 62
    10
 10
2.6513251493196082
 20
9.5279648931570691
 30
0.0
 11
2.482847451000572
 21
9.1185595962605994
 31
0.0
 12
5.0633413716544799
 22
9.1185595962605994
 32
0.0
 13
5.0633413716544799
 23
9.1185595962605994
 33
0.0
210
0.0
220
0.0
230
1.0
  0
SOLID
  5
E20
  8
0
  6
CONTINUOUS
 62
    10
 10
-2.6513251493196082
 20
9.5279648931570691
 30
0.0
 11
-5.119553802303364
 21
9.5279648931570691
 31
0.0
 12
-5.0633413716544799
 22
9.1185595962605994
 32
0.0
 13
-5.0633413716544799
 23
9.1185595962605994
 33
0.0
210
0.0
220
0.0
230
-1.0
  0
SOLID
  5
E21
  8
0
  6
CONTINUOUS
 62
    10
 10
2.482847451000572
 20
9.1185595962605994
 30
0.0
 11
2.3475724035053762
 21
8.789837625726669
 31
0.0
 12
5.0764878050492541
 22
8.789837625726669
 32
0.0
 13
5.0764878050492541
 23
8.789837625726669
 33
0.0
210
0.0
220
0.0
230
1.0
  0
SOLID
  5
E22
  8
0
  6
CONTINUOUS
 62
    10
 10
-2.482847451000572
 20
9.1185595962605994
 30
0.0
 11
-5.0633413716544799
 21
9.1185595962605994
 31
0.0
 12
-5.0764878050492541
 22
8.789837625726669
 32
0.0
 13
-5.0764878050492541
 23
8.789837625726669
 33
0.0
210
0.0
220
0.0
230
-1.0
  0
SOLID
  5
E23
  8
0
  6
CONTINUOUS
 62
    10
 10
2.3475724035053762
 20
8.789837625726669
 30
0.0
 11
2.2949452516430391
 21
8.4911646200021185
 31
0.0
 12
5.0884325033917372
 22
8.4911646200021185
 32
0.0
 13
5.0884325033917372
 23
8.4911646200021185
 33
0.0
210
0.0
220
0.0
230
1.0
  0
SOLID
  5
E24
  8
0
  6
CONTINUOUS
 62
    10
 10
-2.3475724035053762
 20
8.789837625726669
 30
0.0
 11
-5.0764878050492541
 21
8.789837625726669
 31
0.0
 12
-5.0884325033917372
 22
8.4911646200021185
 32
0.0
 13
-5.0884325033917372
 23
8.4911646200021185
 33
0.0
210
0.0
220
0.0
230
-1.0
  0
SOLID
  5
E25
  8
0
  6
CONTINUOUS
 62
    10
 10
2.2949452516430391
 20
8.4911646200021185
 30
0.0
 11
2.2044248105364201
 21
7.97743717574392
 31
0.0
 12
5.1987836181922704
 22
7.97743717574392
 32
0.0
 13
5.1987836181922704
 23
7.97743717574392
 33
0.0
210
0.0
220
0.0
230
1.0
  0
SOLID
  5
E26
  8
0
  6
CONTINUOUS
 62
    10
 10
-2.2949452516430391
 20
8.4911646200021185
 30
0.0
 11
-5.0884325033917372
 21
8.4911646200021185
 31
0.0
 12
-5.1987836181922704
 22
7.97743717574392
 32
0.0
 13
-5.1987836181922704
 23
7.97743717574392
 33
0.0
210
0.0
220
0.0
230
-1.0
  0
SOLID
  5
E27
  8
0
  6
CONTINUOUS
 62
    10
 10
2.2044248105364201
 20
7.97743717574392
 30
0.0
 11
2.2072953985611812
 21
7.8689441538800811
 31
0.0
 12
5.2220884387631097
 22
7.8689441538800811
 32
0.0
 13
5.2220884387631097
 23
7.8689441538800811
 33
0.0
210
0.0
220
0.0
230
1.0
  0
SOLID
  5
E28
  8
0
  6
CONTINUOUS
 62
    10
 10
-2.2044248105364201
 20
7.97743717574392
 30
0.0
 11
-5.1987836181922704
 21
7.97743717574392
 31
0.0
 12
-5.2220884387631097
 22
7.8689441538800811
 32
0.0
 13
-5.2220884387631097
 23
7.8689441538800811
 33
0.0
210
0.0
220
0.0
230
-1.0
  0
SOLID
  5
E29
  8
0
  6
CONTINUOUS
 62
    10
 10
2.2072953985611812
 20
7.8689441538800811
 30
0.0
 11
2.2231214285157299
 21
7.270804051898855
 31
0.0
 12
5.4602481098055078
 22
7.270804051898855
 32
0.0
 13
5.4602481098055078
 23
7.270804051898855
 33
0.0
210
0.0
220
0.0
230
1.0
  0
SOLID
  5
E2A
  8
0
  6
CONTINUOUS
 62
    10
 10
-2.2072953985611812
 20
7.8689441538800811
 30
0.0
 11
-5.2220884387631097
 21
7.8689441538800811
 31
0.0
 12
-5.4602481098055078
 22
7.270804051898855
 32
0.0
 13
-5.4602481098055078
 23
7.270804051898855
 33
0.0
210
0.0
220
0.0
230
-1.0
  0
SOLID
  5
E2B
  8
0
  6
CONTINUOUS
 62
    10
 10
2.2231214285157299
 20
7.270804051898855
 30
0.0
 11
2.2271013837866009
 21
7.1203828244377378
 31
0.0
 12
5.5510138215734592
 22
7.1203828244377378
 32
0.0
 13
5.5510138215734592
 23
7.1203828244377378
 33
0.0
  0
SOLID
  5
E2C
  8
0
  6
CONTINUOUS
 62
    10
 10
-2.2231214285157299
 20
7.270804051898855
 30
0.0
 11
-5.4602481098055078
 21
7.270804051898855
 31
0.0
 12
-5.5510138215734592
 22
7.1203828244377378
 32
0.0
 13
-5.5510138215734592
 23
7.1203828244377378
 33
0.0
210
0.0
220
0.0
230
-1.0
  0
SOLID
  5
E2D
  8
0
  6
CONTINUOUS
 62
    10
 10
2.2271013837866009
 20
7.1203828244377378
 30
0.0
 11
2.314520702256341
 21
6.7149184983836463
 31
0.0
 12
5.7956751554289161
 22
6.7149184983836463
 32
0.0
 13
5.7956751554289161
 23
6.7149184983836463
 33
0.0
210
0.0
220
0.0
230
1.0
  0
SOLID
  5
E2E
  8
0
  6
CONTINUOUS
 62
    10
 10
-2.2271013837866009
 20
7.1203828244377378
 30
0.0
 11
-5.5510138215734592
 21
7.1203828244377378
 31
0.0
 12
-5.7956751554289161
 22
6.7149184983836463
 32
0.0
 13
-5.7956751554289161
 23
6.7149184983836463
 33
0.0
210
0.0
220
0.0
230
-1.0
  0
SOLID
  5
E2F
  8
0
  6
CONTINUOUS
 62
    10
 10
2.314520702256341
 20
6.7149184983836463
 30
0.0
 11
2.414775358819218
 21
6.2499218881535814
 31
0.0
 12
6.1911778664401513
 22
6.2499218881535814
 32
0.0
 13
6.1911778664401513
 23
6.2499218881535814
 33
0.0
210
0.0
220
0.0
230
1.0
  0
SOLID
  5
E30
  8
0
  6
CONTINUOUS
 62
    10
 10
-2.314520702256341
 20
6.7149184983836463
 30
0.0
 11
-5.7956751554289161
 21
6.7149184983836463
 31
0.0
 12
-6.1911778664401513
 22
6.2499218881535814
 32
0.0
 13
-6.1911778664401513
 23
6.2499218881535814
 33
0.0
210
0.0
220
0.0
230
-1.0
  0
SOLID
  5
E31
  8
0
  6
CONTINUOUS
 62
    10
 10
2.414775358819218
 20
6.2499218881535814
 30
0.0
 11
2.427658380419373
 21
6.2181777945863512
 31
0.0
 12
6.2181777945863406
 22
6.2181777945863512
 32
0.0
 13
6.2181777945863406
 23
6.2181777945863512
 33
0.0
210
0.0
220
0.0
230
1.0
  0
SOLID
  5
E32
  8
0
  6
CONTINUOUS
 62
    10
 10
-2.414775358819218
 20
6.2499218881535814
 30
0.0
 11
-6.1911778664401513
 21
6.2499218881535814
 31
0.0
 12
-6.2181777945863406
 22
6.2181777945863512
 32
0.0
 13
-6.2181777945863406
 23
6.2181777945863512
 33
0.0
210
0.0
220
0.0
230
-1.0
  0
SOLID
  5
E33
  8
0
  6
CONTINUOUS
 62
    10
 10
2.427658380419373
 20
6.2181777945863512
 30
0.0
 11
2.7606043363643571
 21
5.3977904734767321
 31
0.0
 12
5.3977904734767232
 22
5.3977904734767321
 32
0.0
 13
5.3977904734767232
 23
5.3977904734767321
 33
0.0
210
0.0
220
0.0
230
1.0
  0
SOLID
  5
E34
  8
0
  6
CONTINUOUS
 62
    10
 10
-2.427658380419373
 20
6.2181777945863512
 30
0.0
 11
-6.2181777945863406
 21
6.2181777945863512
 31
0.0
 12
-5.3977904734767232
 22
5.3977904734767321
 32
0.0
 13
-5.3977904734767232
 23
5.3977904734767321
 33
0.0
210
0.0
220
0.0
230
-1.0
  0
SOLID
  5
E35
  8
0
  6
CONTINUOUS
 62
    10
 10
-3.2519797491283451
 20
4.595056411568339
 30
0.0
 11
-4.595056411568331
 21
4.595056411568339
 31
0.0
 12
-3.8709865571331288
 22
3.8709865571331359
 32
0.0
 13
-3.8709865571331288
 23
3.8709865571331359
 33
0.0
210
0.0
220
0.0
230
-1.0
  0
SOLID
  5
E36
  8
0
  6
CONTINUOUS
 62
    10
 10
2.7606043363643571
 20
5.3977904734767321
 30
0.0
 11
3.2519797491283451
 21
4.595056411568339
 31
0.0
 12
4.595056411568331
 22
4.595056411568339
 32
0.0
 13
4.595056411568331
 23
4.595056411568339
 33
0.0
  0
SOLID
  5
E37
  8
0
  6
CONTINUOUS
 62
    10
 10
-2.7606043363643571
 20
5.3977904734767321
 30
0.0
 11
-5.3977904734767232
 21
5.3977904734767321
 31
0.0
 12
-4.595056411568331
 22
4.595056411568339
 32
0.0
 13
-4.595056411568331
 23
4.595056411568339
 33
0.0
210
0.0
220
0.0
230
-1.0
  0
LINE
  5
E38
  8
0
  6
CONTINUOUS
 62
    10
 10
6.0146099189681879
 20
11.30832134920211
 30
0.0
 11
5.1729134187847636
 21
11.259765832519181
 31
0.0
  0
LINE
  5
E39
  8
0
  6
CONTINUOUS
 62
    10
 10
5.9744615744533309
 20
11.259765832519181
 30
0.0
 11
6.0146099189681879
 21
11.30832134920211
 31
0.0
  0
LINE
  5
E3A
  8
0
  6
CONTINUOUS
 62
    10
 10
5.1729134187847636
 20
11.259765832519181
 30
0.0
 11
4.3888130564947847
 21
11.04688610220216
 31
0.0
  0
LINE
  5
E3B
  8
0
  6
CONTINUOUS
 62
    10
 10
5.9744615744533309
 20
11.259765832519181
 30
0.0
 11
5.7984410244341014
 21
11.04688610220216
 31
0.0
  0
LINE
  5
E3C
  8
0
  6
CONTINUOUS
 62
    10
 10
4.3888130564947847
 20
11.04688610220216
 30
0.0
 11
4.005231815503012
 21
10.84383718259229
 31
0.0
  0
LINE
  5
E3D
  8
0
  6
CONTINUOUS
 62
    10
 10
5.7984410244341014
 20
11.04688610220216
 30
0.0
 11
5.6305491238885921
 21
10.84383718259229
 31
0.0
  0
LINE
  5
E3E
  8
0
  6
CONTINUOUS
 62
    10
 10
4.005231815503012
 20
10.84383718259229
 30
0.0
 11
3.6908963213627559
 21
10.677443533322091
 31
0.0
  0
LINE
  5
E3F
  8
0
  6
CONTINUOUS
 62
    10
 10
5.6305491238885921
 20
10.84383718259229
 30
0.0
 11
5.5390228993184261
 21
10.677443533322091
 31
0.0
  0
LINE
  5
E40
  8
0
  6
CONTINUOUS
 62
    10
 10
3.6908963213627559
 20
10.677443533322091
 30
0.0
 11
3.2740597324553291
 21
10.31304276081435
 31
0.0
  0
LINE
  5
E41
  8
0
  6
CONTINUOUS
 62
    10
 10
5.5390228993184261
 20
10.677443533322091
 30
0.0
 11
5.3385811932535159
 21
10.31304276081435
 31
0.0
  0
LINE
  5
E42
  8
0
  6
CONTINUOUS
 62
    10
 10
3.2740597324553291
 20
10.31304276081435
 30
0.0
 11
3.104608536631273
 21
10.164907620320809
 31
0.0
  0
LINE
  5
E43
  8
0
  6
CONTINUOUS
 62
    10
 10
5.3385811932535159
 20
10.31304276081435
 30
0.0
 11
5.2898798128310922
 21
10.164907620320809
 31
0.0
  0
LINE
  5
E44
  8
0
  6
CONTINUOUS
 62
    10
 10
3.104608536631273
 20
10.164907620320809
 30
0.0
 11
2.7965746966200138
 21
9.7320660037790852
 31
0.0
  0
LINE
  5
E45
  8
0
  6
CONTINUOUS
 62
    10
 10
5.2898798128310922
 20
10.164907620320809
 30
0.0
 11
5.147577424892452
 21
9.7320660037790852
 31
0.0
  0
LINE
  5
E46
  8
0
  6
CONTINUOUS
 62
    10
 10
2.7965746966200138
 20
9.7320660037790852
 30
0.0
 11
2.6513251493196082
 21
9.5279648931570691
 31
0.0
  0
LINE
  5
E47
  8
0
  6
CONTINUOUS
 62
    10
 10
5.147577424892452
 20
9.7320660037790852
 30
0.0
 11
5.119553802303364
 21
9.5279648931570691
 31
0.0
  0
LINE
  5
E48
  8
0
  6
CONTINUOUS
 62
    10
 10
2.6513251493196082
 20
9.5279648931570691
 30
0.0
 11
2.482847451000572
 21
9.1185595962605994
 31
0.0
  0
LINE
  5
E49
  8
0
  6
CONTINUOUS
 62
    10
 10
5.119553802303364
 20
9.5279648931570691
 30
0.0
 11
5.0633413716544799
 21
9.1185595962605994
 31
0.0
  0
LINE
  5
E4A
  8
0
  6
CONTINUOUS
 62
    10
 10
2.482847451000572
 20
9.1185595962605994
 30
0.0
 11
2.3475724035053762
 21
8.789837625726669
 31
0.0
  0
LINE
  5
E4B
  8
0
  6
CONTINUOUS
 62
    10
 10
5.0633413716544799
 20
9.1185595962605994
 30
0.0
 11
5.0764878050492541
 21
8.789837625726669
 31
0.0
  0
LINE
  5
E4C
  8
0
  6
CONTINUOUS
 62
    10
 10
2.3475724035053762
 20
8.789837625726669
 30
0.0
 11
2.2949452516430391
 21
8.4911646200021185
 31
0.0
  0
LINE
  5
E4D
  8
0
  6
CONTINUOUS
 62
    10
 10
5.0764878050492541
 20
8.789837625726669
 30
0.0
 11
5.0884325033917372
 21
8.4911646200021185
 31
0.0
  0
LINE
  5
E4E
  8
0
  6
CONTINUOUS
 62
    10
 10
2.2949452516430391
 20
8.4911646200021185
 30
0.0
 11
2.2044248105364201
 21
7.97743717574392
 31
0.0
  0
LINE
  5
E4F
  8
0
  6
CONTINUOUS
 62
    10
 10
5.0884325033917372
 20
8.4911646200021185
 30
0.0
 11
5.1987836181922704
 21
7.97743717574392
 31
0.0
  0
LINE
  5
E50
  8
0
  6
CONTINUOUS
 62
    10
 10
2.2044248105364201
 20
7.97743717574392
 30
0.0
 11
2.2072953985611812
 21
7.8689441538800811
 31
0.0
  0
LINE
  5
E51
  8
0
  6
CONTINUOUS
 62
    10
 10
5.1987836181922704
 20
7.97743717574392
 30
0.0
 11
5.2220884387631097
 21
7.8689441538800811
 31
0.0
  0
LINE
  5
E52
  8
0
  6
CONTINUOUS
 62
    10
 10
2.2072953985611812
 20
7.8689441538800811
 30
0.0
 11
2.2231214285157299
 21
7.270804051898855
 31
0.0
  0
LINE
  5
E53
  8
0
  6
CONTINUOUS
 62
    10
 10
5.2220884387631097
 20
7.8689441538800811
 30
0.0
 11
5.4602481098055078
 21
7.270804051898855
 31
0.0
  0
LINE
  5
E54
  8
0
  6
CONTINUOUS
 62
    10
 10
2.2231214285157299
 20
7.270804051898855
 30
0.0
 11
2.2271013837866009
 21
7.1203828244377378
 31
0.0
  0
LINE
  5
E55
  8
0
  6
CONTINUOUS
 62
    10
 10
5.4602481098055078
 20
7.270804051898855
 30
0.0
 11
5.5510138215734592
 21
7.1203828244377378
 31
0.0
  0
LINE
  5
E56
  8
0
  6
CONTINUOUS
 62
    10
 10
2.2271013837866009
 20
7.1203828244377378
 30
0.0
 11
2.314520702256341
 21
6.7149184983836463
 31
0.0
  0
LINE
  5
E57
  8
0
  6
CONTINUOUS
 62
    10
 10
5.5510138215734592
 20
7.1203828244377378
 30
0.0
 11
5.7956751554289161
 21
6.7149184983836463
 31
0.0
  0
LINE
  5
E58
  8
0
  6
CONTINUOUS
 62
    10
 10
2.314520702256341
 20
6.7149184983836463
 30
0.0
 11
2.414775358819218
 21
6.2499218881535814
 31
0.0
  0
LINE
  5
E59
  8
0
  6
CONTINUOUS
 62
    10
 10
5.7956751554289161
 20
6.7149184983836463
 30
0.0
 11
6.1911778664401513
 21
6.2499218881535814
 31
0.0
  0
LINE
  5
E5A
  8
0
  6
CONTINUOUS
 62
    10
 10
2.414775358819218
 20
6.2499218881535814
 30
0.0
 11
2.427658380419373
 21
6.2181777945863512
 31
0.0
  0
LINE
  5
E5B
  8
0
  6
CONTINUOUS
 62
    10
 10
6.1911778664401513
 20
6.2499218881535814
 30
0.0
 11
6.2181777945863406
 21
6.2181777945863512
 31
0.0
  0
LINE
  5
E5C
  8
0
  6
CONTINUOUS
 62
    10
 10
2.427658380419373
 20
6.2181777945863512
 30
0.0
 11
2.7606043363643571
 21
5.3977904734767321
 31
0.0
  0
LINE
  5
E5D
  8
0
  6
CONTINUOUS
 62
    10
 10
6.2181777945863406
 20
6.2181777945863512
 30
0.0
 11
5.3977904734767232
 21
5.3977904734767321
 31
0.0
  0
LINE
  5
E5E
  8
0
  6
CONTINUOUS
 62
    10
 10
4.595056411568331
 20
4.595056411568339
 30
0.0
 11
3.8709865571331288
 21
3.8709865571331359
 31
0.0
  0
LINE
  5
E5F
  8
0
  6
CONTINUOUS
 62
    10
 10
3.8709865571331288
 20
3.8709865571331359
 30
0.0
 11
3.2519797491283451
 21
4.595056411568339
 31
0.0
  0
LINE
  5
E60
  8
0
  6
CONTINUOUS
 62
    10
 10
2.7606043363643571
 20
5.3977904734767321
 30
0.0
 11
3.2519797491283451
 21
4.595056411568339
 31
0.0
  0
LINE
  5
E61
  8
0
  6
CONTINUOUS
 62
    10
 10
5.3977904734767232
 20
5.3977904734767321
 30
0.0
 11
4.595056411568331
 21
4.595056411568339
 31
0.0
  0
ENDBLK
  5
E63
  8
0
  0
BLOCK
  8
0
  2
*U20
 70
     1
 10
0.0
 20
0.0
 30
0.0
  3
*U20
  1

  0
SOLID
  5
E65
  8
0
  6
CONTINUOUS
 62
    12
 10
7.9620276993583214
 20
13.0854187299768
 30
0.0
 11
7.726053052330335
 21
12.502686364512639
 31
0.0
 12
8.0145211234883256
 22
12.502686364512639
 32
0.0
 13
8.0145211234883256
 23
12.502686364512639
 33
0.0
210
0.0
220
0.0
230
1.0
  0
SOLID
  5
E66
  8
0
  6
CONTINUOUS
 62
    12
 10
7.726053052330335
 20
12.502686364512639
 30
0.0
 11
7.6896691308844352
 21
12.305615814196489
 31
0.0
 12
8.0322735405400856
 22
12.305615814196489
 32
0.0
 13
8.0322735405400856
 23
12.305615814196489
 33
0.0
210
0.0
220
0.0
230
1.0
  0
SOLID
  5
E67
  8
0
  6
CONTINUOUS
 62
    12
 10
-7.726053052330335
 20
12.502686364512639
 30
0.0
 11
-8.0145211234883256
 21
12.502686364512639
 31
0.0
 12
-8.0322735405400856
 22
12.305615814196489
 32
0.0
 13
-8.0322735405400856
 23
12.305615814196489
 33
0.0
210
0.0
220
0.0
230
-1.0
  0
SOLID
  5
E68
  8
0
  6
CONTINUOUS
 62
    12
 10
7.6896691308844352
 20
12.305615814196489
 30
0.0
 11
7.6101021171157353
 21
11.874647557689951
 31
0.0
 12
8.1421125435103239
 22
11.874647557689951
 32
0.0
 13
8.1421125435103239
 23
11.874647557689951
 33
0.0
210
0.0
220
0.0
230
1.0
  0
SOLID
  5
E69
  8
0
  6
CONTINUOUS
 62
    12
 10
-7.6896691308844352
 20
12.305615814196489
 30
0.0
 11
-8.0322735405400856
 21
12.305615814196489
 31
0.0
 12
-8.1421125435103239
 22
11.874647557689951
 32
0.0
 13
-8.1421125435103239
 23
11.874647557689951
 33
0.0
210
0.0
220
0.0
230
-1.0
  0
SOLID
  5
E6A
  8
0
  6
CONTINUOUS
 62
    12
 10
7.6101021171157353
 20
11.874647557689951
 30
0.0
 11
7.6142723794518741
 21
11.537219260977031
 31
0.0
 12
8.2281114242291178
 22
11.537219260977031
 32
0.0
 13
8.2281114242291178
 23
11.537219260977031
 33
0.0
210
0.0
220
0.0
230
1.0
  0
SOLID
  5
E6B
  8
0
  6
CONTINUOUS
 62
    12
 10
-7.6101021171157353
 20
11.874647557689951
 30
0.0
 11
-8.1421125435103239
 21
11.874647557689951
 31
0.0
 12
-8.2281114242291178
 22
11.537219260977031
 32
0.0
 13
-8.2281114242291178
 23
11.537219260977031
 33
0.0
210
0.0
220
0.0
230
-1.0
  0
SOLID
  5
E6C
  8
0
  6
CONTINUOUS
 62
    12
 10
7.6142723794518741
 20
11.537219260977031
 30
0.0
 11
7.6181573709567632
 21
11.22287307347732
 31
0.0
 12
8.3630753985682418
 22
11.22287307347732
 32
0.0
 13
8.3630753985682418
 23
11.22287307347732
 33
0.0
210
0.0
220
0.0
230
1.0
  0
SOLID
  5
E6D
  8
0
  6
CONTINUOUS
 62
    12
 10
-7.6142723794518741
 20
11.537219260977031
 30
0.0
 11
-8.2281114242291178
 21
11.537219260977031
 31
0.0
 12
-8.3630753985682418
 22
11.22287307347732
 32
0.0
 13
-8.3630753985682418
 23
11.22287307347732
 33
0.0
210
0.0
220
0.0
230
-1.0
  0
SOLID
  5
E6E
  8
0
  6
CONTINUOUS
 62
    12
 10
7.6181573709567632
 20
11.22287307347732
 30
0.0
 11
7.7033294562551671
 21
10.80076098123946
 31
0.0
 12
8.5443084716910924
 22
10.80076098123946
 32
0.0
 13
8.5443084716910924
 23
10.80076098123946
 33
0.0
210
0.0
220
0.0
230
1.0
  0
SOLID
  5
E6F
  8
0
  6
CONTINUOUS
 62
    12
 10
-7.6181573709567632
 20
11.22287307347732
 30
0.0
 11
-8.3630753985682418
 21
11.22287307347732
 31
0.0
 12
-8.5443084716910924
 22
10.80076098123946
 32
0.0
 13
-8.5443084716910924
 23
10.80076098123946
 33
0.0
210
0.0
220
0.0
230
-1.0
  0
SOLID
  5
E70
  8
0
  6
CONTINUOUS
 62
    12
 10
7.7033294562551671
 20
10.80076098123946
 30
0.0
 11
7.7499421462694658
 21
10.56974890682757
 31
0.0
 12
8.6887184566618156
 22
10.56974890682757
 32
0.0
 13
8.6887184566618156
 23
10.56974890682757
 33
0.0
210
0.0
220
0.0
230
1.0
  0
SOLID
  5
E71
  8
0
  6
CONTINUOUS
 62
    12
 10
-7.7033294562551671
 20
10.80076098123946
 30
0.0
 11
-8.5443084716910924
 21
10.80076098123946
 31
0.0
 12
-8.6887184566618156
 22
10.56974890682757
 32
0.0
 13
-8.6887184566618156
 23
10.56974890682757
 33
0.0
210
0.0
220
0.0
230
-1.0
  0
SOLID
  5
E72
  8
0
  6
CONTINUOUS
 62
    12
 10
7.7499421462694658
 20
10.56974890682757
 30
0.0
 11
7.9301609048857129
 21
10.115919480481089
 31
0.0
 12
8.9724157517266381
 22
10.115919480481089
 32
0.0
 13
8.9724157517266381
 23
10.115919480481089
 33
0.0
210
0.0
220
0.0
230
1.0
  0
SOLID
  5
E73
  8
0
  6
CONTINUOUS
 62
    12
 10
-7.7499421462694658
 20
10.56974890682757
 30
0.0
 11
-8.6887184566618156
 21
10.56974890682757
 31
0.0
 12
-8.9724157517266381
 22
10.115919480481089
 32
0.0
 13
-8.9724157517266381
 23
10.115919480481089
 33
0.0
210
0.0
220
0.0
230
-1.0
  0
SOLID
  5
E74
  8
0
  6
CONTINUOUS
 62
    12
 10
7.9301609048857129
 20
10.115919480481089
 30
0.0
 11
8.0009301331315203
 21
9.9377074091940685
 31
0.0
 12
9.1256034805061663
 22
9.9377074091940685
 32
0.0
 13
9.1256034805061663
 23
9.9377074091940685
 33
0.0
210
0.0
220
0.0
230
1.0
  0
SOLID
  5
E75
  8
0
  6
CONTINUOUS
 62
    12
 10
-7.9301609048857129
 20
10.115919480481089
 30
0.0
 11
-8.9724157517266381
 21
10.115919480481089
 31
0.0
 12
-9.1256034805061663
 22
9.9377074091940685
 32
0.0
 13
-9.1256034805061663
 23
9.9377074091940685
 33
0.0
210
0.0
220
0.0
230
-1.0
  0
SOLID
  5
E76
  8
0
  6
CONTINUOUS
 62
    12
 10
8.0009301331315203
 20
9.9377074091940685
 30
0.0
 11
8.2689023089893947
 21
9.5009940400166073
 31
0.0
 12
9.5009940400166073
 22
9.5009940400166073
 32
0.0
 13
9.5009940400166073
 23
9.5009940400166073
 33
0.0
210
0.0
220
0.0
230
1.0
  0
SOLID
  5
E77
  8
0
  6
CONTINUOUS
 62
    12
 10
-8.0009301331315203
 20
9.9377074091940685
 30
0.0
 11
-9.1256034805061663
 21
9.9377074091940685
 31
0.0
 12
-9.5009940400166073
 22
9.5009940400166073
 32
0.0
 13
-9.5009940400166073
 23
9.5009940400166073
 33
0.0
210
0.0
220
0.0
230
-1.0
  0
SOLID
  5
E78
  8
0
  6
CONTINUOUS
 62
    12
 10
-8.3625008409542172
 20
9.3484568218760877
 30
0.0
 11
-9.3484568218760877
 21
9.3484568218760877
 31
0.0
 12
-8.8222356798165631
 22
8.8222356798165631
 32
0.0
 13
-8.8222356798165631
 23
8.8222356798165631
 33
0.0
210
0.0
220
0.0
230
-1.0
  0
SOLID
  5
E79
  8
0
  6
CONTINUOUS
 62
    12
 10
8.2689023089893947
 20
9.5009940400166073
 30
0.0
 11
8.3625008409542172
 21
9.3484568218760877
 31
0.0
 12
9.3484568218760877
 22
9.3484568218760877
 32
0.0
 13
9.3484568218760877
 23
9.3484568218760877
 33
0.0
210
0.0
220
0.0
230
1.0
  0
SOLID
  5
E7A
  8
0
  6
CONTINUOUS
 62
    12
 10
-8.2689023089893947
 20
9.5009940400166073
 30
0.0
 11
-9.5009940400166073
 21
9.5009940400166073
 31
0.0
 12
-9.3484568218760877
 22
9.3484568218760877
 32
0.0
 13
-9.3484568218760877
 23
9.3484568218760877
 33
0.0
210
0.0
220
0.0
230
-1.0
  0
LINE
  5
E7B
  8
0
  6
CONTINUOUS
 62
    12
 10
7.9620276993583214
 20
13.0854187299768
 30
0.0
 11
7.726053052330335
 21
12.502686364512639
 31
0.0
  0
LINE
  5
E7C
  8
0
  6
CONTINUOUS
 62
    12
 10
8.0145211234883256
 20
12.502686364512639
 30
0.0
 11
7.9620276993583214
 21
13.0854187299768
 31
0.0
  0
LINE
  5
E7D
  8
0
  6
CONTINUOUS
 62
    12
 10
7.726053052330335
 20
12.502686364512639
 30
0.0
 11
7.6896691308844352
 21
12.305615814196489
 31
0.0
  0
LINE
  5
E7E
  8
0
  6
CONTINUOUS
 62
    12
 10
8.0145211234883256
 20
12.502686364512639
 30
0.0
 11
8.0322735405400856
 21
12.305615814196489
 31
0.0
  0
LINE
  5
E7F
  8
0
  6
CONTINUOUS
 62
    12
 10
7.6896691308844352
 20
12.305615814196489
 30
0.0
 11
7.6101021171157353
 21
11.874647557689951
 31
0.0
  0
LINE
  5
E80
  8
0
  6
CONTINUOUS
 62
    12
 10
8.0322735405400856
 20
12.305615814196489
 30
0.0
 11
8.1421125435103239
 21
11.874647557689951
 31
0.0
  0
LINE
  5
E81
  8
0
  6
CONTINUOUS
 62
    12
 10
7.6101021171157353
 20
11.874647557689951
 30
0.0
 11
7.6142723794518741
 21
11.537219260977031
 31
0.0
  0
LINE
  5
E82
  8
0
  6
CONTINUOUS
 62
    12
 10
8.1421125435103239
 20
11.874647557689951
 30
0.0
 11
8.2281114242291178
 21
11.537219260977031
 31
0.0
  0
LINE
  5
E83
  8
0
  6
CONTINUOUS
 62
    12
 10
7.6142723794518741
 20
11.537219260977031
 30
0.0
 11
7.6181573709567632
 21
11.22287307347732
 31
0.0
  0
LINE
  5
E84
  8
0
  6
CONTINUOUS
 62
    12
 10
8.2281114242291178
 20
11.537219260977031
 30
0.0
 11
8.3630753985682418
 21
11.22287307347732
 31
0.0
  0
LINE
  5
E85
  8
0
  6
CONTINUOUS
 62
    12
 10
7.6181573709567632
 20
11.22287307347732
 30
0.0
 11
7.7033294562551671
 21
10.80076098123946
 31
0.0
  0
LINE
  5
E86
  8
0
  6
CONTINUOUS
 62
    12
 10
8.3630753985682418
 20
11.22287307347732
 30
0.0
 11
8.5443084716910924
 21
10.80076098123946
 31
0.0
  0
LINE
  5
E87
  8
0
  6
CONTINUOUS
 62
    12
 10
7.7033294562551671
 20
10.80076098123946
 30
0.0
 11
7.7499421462694658
 21
10.56974890682757
 31
0.0
  0
LINE
  5
E88
  8
0
  6
CONTINUOUS
 62
    12
 10
8.5443084716910924
 20
10.80076098123946
 30
0.0
 11
8.6887184566618156
 21
10.56974890682757
 31
0.0
  0
LINE
  5
E89
  8
0
  6
CONTINUOUS
 62
    12
 10
7.7499421462694658
 20
10.56974890682757
 30
0.0
 11
7.9301609048857129
 21
10.115919480481089
 31
0.0
  0
LINE
  5
E8A
  8
0
  6
CONTINUOUS
 62
    12
 10
8.6887184566618156
 20
10.56974890682757
 30
0.0
 11
8.9724157517266381
 21
10.115919480481089
 31
0.0
  0
LINE
  5
E8B
  8
0
  6
CONTINUOUS
 62
    12
 10
7.9301609048857129
 20
10.115919480481089
 30
0.0
 11
8.0009301331315203
 21
9.9377074091940685
 31
0.0
  0
LINE
  5
E8C
  8
0
  6
CONTINUOUS
 62
    12
 10
8.9724157517266381
 20
10.115919480481089
 30
0.0
 11
9.1256034805061663
 21
9.9377074091940685
 31
0.0
  0
LINE
  5
E8D
  8
0
  6
CONTINUOUS
 62
    12
 10
8.0009301331315203
 20
9.9377074091940685
 30
0.0
 11
8.2689023089893947
 21
9.5009940400166073
 31
0.0
  0
LINE
  5
E8E
  8
0
  6
CONTINUOUS
 62
    12
 10
9.1256034805061663
 20
9.9377074091940685
 30
0.0
 11
9.5009940400166073
 21
9.5009940400166073
 31
0.0
  0
LINE
  5
E8F
  8
0
  6
CONTINUOUS
 62
    12
 10
9.3484568218760877
 20
9.3484568218760877
 30
0.0
 11
8.8222356798165631
 21
8.8222356798165631
 31
0.0
  0
LINE
  5
E90
  8
0
  6
CONTINUOUS
 62
    12
 10
8.8222356798165631
 20
8.8222356798165631
 30
0.0
 11
8.3625008409542172
 21
9.3484568218760877
 31
0.0
  0
LINE
  5
E91
  8
0
  6
CONTINUOUS
 62
    12
 10
8.2689023089893947
 20
9.5009940400166073
 30
0.0
 11
8.3625008409542172
 21
9.3484568218760877
 31
0.0
  0
LINE
  5
E92
  8
0
  6
CONTINUOUS
 62
    12
 10
9.5009940400166073
 20
9.5009940400166073
 30
0.0
 11
9.3484568218760877
 21
9.3484568218760877
 31
0.0
  0
ENDBLK
  5
E94
  8
0
  0
ENDSEC
  0
SECTION
  2
ENTITIES
  0
INSERT
  5
29
  8
01_SCHACHT
 62
     0
  2
01_SCHACHT
 10
3523767.3339999998
 20
5401382.8169999998
 30
0.0
 41
2.0
 42
2.0
  0
INSERT
  5
2A
  8
01_SCHACHT
 62
     0
  2
01_SCHACHT
 10
3523995.6409999998
 20
5400812.0480000004
 30
0.0
 41
2.0
 42
2.0
  0
INSERT
  5
2B
  8
01_SCHACHT
 62
     0
  2
01_SCHACHT
 10
3523559.7820000001
 20
5400526.6639999999
 30
0.0
 41
2.0
 42
2.0
  0
INSERT
  5
2F
  8
01_KVZ
 62
     0
  2
01_KVZ
 10
3524628.676
 20
5399328.0489999987
 30
0.0
 41
2.0
 42
2.0
  0
INSERT
  5
30
  8
01_KVZ
 62
     0
  2
01_KVZ
 10
3521307.8390000002
 20
5401813.4879999999
 30
0.0
 41
2.0
 42
2.0
  0
TEXT
  5
35
  8
01_TEXT
 62
     7
 10
3524063.855
 20
5400808.3539999994
 30
0.0
 40
12.0
  1
Schacht
 11
3524063.855
 21
5400814.3539999994
 31
0.0
 73
     2
  0
TEXT
  5
36
  8
01_TEXT
 62
     7
 10
3524578.5899999999
 20
5401696.4729999993
 30
0.0
 40
12.0
  1
448m - GR-andereBauma
 11
3524578.5899999999
 21
5401702.4729999993
 31
0.0
 73
     2
  0
TEXT
  5
37
  8
01_TEXT
 62
     7
 10
3521382.9610000001
 20
5401832.4389999993
 30
0.0
 40
12.0
  1
KVZ
 11
3521382.9610000001
 21
5401838.4389999993
 31
0.0
 73
     2
  0
TEXT
  5
38
  8
01_TEXT
 62
     7
 10
3524575.6710000001
 20
5401923.6560000004
 30
0.0
 40
12.0
  1
Hauptstraße 52
 11
3524575.6710000001
 21
5401929.6560000004
 31
0.0
 73
     2
  0
TEXT
  5
39
  8
01_TEXT
 62
     7
 10
3524588.267
 20
5401418.3559999997
 30
0.0
 40
12.0
  1
253m - VER-schwGeo
 11
3524588.267
 21
5401424.3560000006
 31
0.0
 73
     2
  0
TEXT
  5
3A
  8
01_TEXT
 62
     7
 10
3524576.5440000002
 20
5401832.8589999992
 30
0.0
 40
12.0
  1
Ansprechpartner: Herr Muster
 11
3524576.5440000002
 21
5401838.8590000002
 31
0.0
 73
     2
  0
TEXT
  5
3B
  8
01_TEXT
 62
     7
 10
3524576.4890000001
 20
5401627.3289999999
 30
0.0
 40
12.0
  1
539m - GR-Micro
 11
3524576.4890000001
 21
5401633.3289999999
 31
0.0
 73
     2
  0
TEXT
  5
3C
  8
01_TEXT
 62
     7
 10
3523809.8480000002
 20
5401388.6979999999
 30
0.0
 40
12.0
  1
Schacht
 11
3523809.8480000002
 21
5401394.6979999999
 31
0.0
 73
     2
  0
TEXT
  5
3D
  8
01_TEXT
 62
     7
 10
3524577.1490000002
 20
5401672.8640000001
 30
0.0
 40
12.0
  1
557m - KR-andereBauma
 11
3524577.1490000002
 21
5401678.8640000001
 31
0.0
 73
     2
  0
TEXT
  5
3E
  8
01_TEXT
 62
     7
 10
3524568.5699999998
 20
5401521.7400000002
 30
0.0
 40
12.0
  1
1690m - KR-unvers
 11
3524568.5699999998
 21
5401527.7400000002
 31
0.0
 73
     2
  0
TEXT
  5
3F
  8
01_TEXT
 62
     7
 10
3524577.1490000002
 20
5401561.3360000011
 30
0.0
 40
12.0
  1
873m - GR-unvers
 11
3524577.1490000002
 21
5401567.3360000001
 31
0.0
 73
     2
  0
TEXT
  5
40
  8
01_TEXT
 62
     7
 10
3524567.1129999999
 20
5401475.8889999986
 30
0.0
 40
12.0
  1
7624m = Gesamtlänge
 11
3524567.1129999999
 21
5401481.8889999986
 31
0.0
 73
     2
  0
TEXT
  5
41
  8
01_TEXT
 62
     7
 10
3524573.9249999998
 20
5401877.8210000005
 30
0.0
 40
12.0
  1
Tel.: 07777/111222
 11
3524573.9249999998
 21
5401883.8210000014
 31
0.0
 73
     2
  0
TEXT
  5
42
  8
01_TEXT
 62
     7
 10
3524577.1490000002
 20
5401604.2320000008
 30
0.0
 40
12.0
  1
487m - GR-Abwasserkanal
 11
3524577.1490000002
 21
5401610.2320000017
 31
0.0
 73
     2
  0
TEXT
  5
43
  8
01_TEXT
 62
     7
 10
3524572.1899999999
 20
5401340.5179999992
 30
0.0
 40
12.0
  1
1 x Glasfaserkabel mit 144 Fasern
 11
3524572.1899999999
 21
5401346.5179999992
 31
0.0
 73
     2
  0
TEXT
  5
44
  8
01_TEXT
 62
     7
 10
3524577.8089999999
 20
5401540.8779999986
 30
0.0
 40
12.0
  1
536m - GR-vers
 11
3524577.8089999999
 21
5401546.8779999996
 31
0.0
 73
     2
  0
TEXT
  5
45
  8
01_TEXT
 62
     7
 10
3524668.969
 20
5399324.012000001
 30
0.0
 40
12.0
  1
KVZ
 11
3524668.969
 21
5399330.0120000001
 31
0.0
 73
     2
  0
TEXT
  5
46
  8
01_TEXT
 62
     7
 10
3524577.8089999999
 20
5401650.4270000001
 30
0.0
 40
12.0
  1
356m - GR-best_KR
 11
3524577.8089999999
 21
5401656.4270000001
 31
0.0
 73
     2
  0
TEXT
  5
47
  8
01_TEXT
 62
     7
 10
3524573.0359999998
 20
5401366.7460000003
 30
0.0
 40
12.0
  1
4 x  Kabelschutzrohre DN50
 11
3524573.0359999998
 21
5401372.7460000003
 31
0.0
 73
     2
  0
TEXT
  5
48
  8
01_TEXT
 62
     7
 10
3524576.9810000001
 20
5401777.8569999998
 30
0.0
 40
12.0
  1
Firma: 
 11
3524576.9810000001
 21
5401783.8570000008
 31
0.0
 73
     2
  0
TEXT
  5
49
  8
01_TEXT
 62
     7
 10
3523575.4130000002
 20
5400534.3499999996
 30
0.0
 40
12.0
  1
Schacht
 11
3523575.4130000002
 21
5400540.3499999987
 31
0.0
 73
     2
  0
TEXT
  5
4A
  8
01_TEXT
 62
     7
 10
3524577.1490000002
 20
5401583.1140000001
 30
0.0
 40
12.0
  1
716m - KR-Abwasserkanal
 11
3524577.1490000002
 21
5401589.1140000001
 31
0.0
 73
     2
  0
TEXT
  5
4B
  8
01_TEXT
 62
     7
 10
3524574.798
 20
5401857.3049999997
 30
0.0
 40
12.0
  1
E-Mail: Musterdorf@musterdorf.de
 11
3524574.798
 21
5401863.3049999988
 31
0.0
 73
     2
  0
TEXT
  5
4C
  8
01_TEXT
 62
     7
 10
3524576.1069999998
 20
5401903.5760000013
 30
0.0
 40
12.0
  1
71234 Musterdorf
 11
3524576.1069999998
 21
5401909.5760000004
 31
0.0
 73
     2
  0
TEXT
  5
4D
  8
01_TEXT
 62
     7
 10
3524576.5440000002
 20
5401801.8660000004
 30
0.0
 40
12.0
  1
Fertigstellungsdatum: 11.08.2015
 11
3524576.5440000002
 21
5401807.8660000004
 31
0.0
 73
     2
  0
TEXT
  5
4E
  8
01_TEXT
 62
     7
 10
3524568.5699999998
 20
5401501.9420000007
 30
0.0
 40
12.0
  1
1422m - KR-vers
 11
3524568.5699999998
 21
5401507.9420000007
 31
0.0
 73
     2
  0
TEXT
  5
4F
  8
01_TEXT
 62
     7
 10
3524574.798
 20
5401960.7609999999
 30
0.0
 40
12.0
  1
Gemeinde
 11
3524574.798
 21
5401966.760999999
 31
0.0
 73
     2
  0
TEXT
  5
50
  8
01_TEXT
 62
     7
 10
3524575.2340000002
 20
5401942.4270000001
 30
0.0
 40
12.0
  1
Musterdorf
 11
3524575.2340000002
 21
5401948.4270000001
 31
0.0
 73
     2
  0
POLYLINE
  5
51
  8
01_HILFSLINIE
 62
    98
 66
     1
 10
0.0
 20
0.0
 30
0.0
  0
VERTEX
  5
AEC
  8
01_HILFSLINIE
 62
    98
 10
3523995.6409999998
 20
5400812.0480000004
 30
0.0
  0
VERTEX
  5
AED
  8
01_HILFSLINIE
 62
    98
 10
3524063.855
 20
5400814.3539999994
 30
0.0
  0
SEQEND
  5
AEE
  8
01_HILFSLINIE
 62
    98
  0
POLYLINE
  5
52
  8
01_HILFSLINIE
 62
    98
 66
     1
 10
0.0
 20
0.0
 30
0.0
  0
VERTEX
  5
AEF
  8
01_HILFSLINIE
 62
    98
 10
3524628.676
 20
5399328.0489999987
 30
0.0
  0
VERTEX
  5
AF0
  8
01_HILFSLINIE
 62
    98
 10
3524668.969
 20
5399330.0120000001
 30
0.0
  0
SEQEND
  5
AF1
  8
01_HILFSLINIE
 62
    98
  0
POLYLINE
  5
53
  8
01_HILFSLINIE
 62
    98
 66
     1
 10
0.0
 20
0.0
 30
0.0
  0
VERTEX
  5
AF2
  8
01_HILFSLINIE
 62
    98
 10
3524568.3250000002
 20
5401495.9779999983
 30
0.0
  0
VERTEX
  5
AF3
  8
01_HILFSLINIE
 62
    98
 10
3524785.9270000001
 20
5401498.0310000004
 30
0.0
  0
SEQEND
  5
AF4
  8
01_HILFSLINIE
 62
    98
  0
POLYLINE
  5
54
  8
01_HILFSLINIE
 62
    98
 66
     1
 10
0.0
 20
0.0
 30
0.0
  0
VERTEX
  5
AF5
  8
01_HILFSLINIE
 62
    98
 10
3521307.8390000002
 20
5401813.4879999999
 30
0.0
  0
VERTEX
  5
AF6
  8
01_HILFSLINIE
 62
    98
 10
3521382.9610000001
 20
5401838.4389999993
 30
0.0
  0
SEQEND
  5
AF7
  8
01_HILFSLINIE
 62
    98
  0
POLYLINE
  5
55
  8
01_HILFSLINIE
 62
    98
 66
     1
 10
0.0
 20
0.0
 30
0.0
  0
VERTEX
  5
AF8
  8
01_HILFSLINIE
 62
    98
 10
3523559.7820000001
 20
5400526.6639999999
 30
0.0
  0
VERTEX
  5
AF9
  8
01_HILFSLINIE
 62
    98
 10
3523575.4130000002
 20
5400540.3499999987
 30
0.0
  0
SEQEND
  5
AFA
  8
01_HILFSLINIE
 62
    98
  0
POLYLINE
  5
56
  8
01_HILFSLINIE
 62
    98
 66
     1
 10
0.0
 20
0.0
 30
0.0
  0
VERTEX
  5
AFB
  8
01_HILFSLINIE
 62
    98
 10
3523767.3339999998
 20
5401382.8169999998
 30
0.0
  0
VERTEX
  5
AFC
  8
01_HILFSLINIE
 62
    98
 10
3523809.8480000002
 20
5401394.6979999999
 30
0.0
  0
SEQEND
  5
AFD
  8
01_HILFSLINIE
 62
    98
  0
POLYLINE
  5
57
  8
01_BESTAND
 62
     7
 66
     1
 10
0.0
 20
0.0
 30
0.0
  0
VERTEX
  5
AFE
  8
01_BESTAND
 62
     7
 10
3523715.4460000009
 20
5401839.432
 30
0.0
  0
VERTEX
  5
AFF
  8
01_BESTAND
 62
     7
 10
3523715.4460000009
 20
5401663.0130000003
 30
0.0
  0
VERTEX
  5
B00
  8
01_BESTAND
 62
     7
 10
3523736.2010000008
 20
5401502.1599999992
 30
0.0
  0
VERTEX
  5
B01
  8
01_BESTAND
 62
     7
 10
3523767.3339999998
 20
5401382.8169999998
 30
0.0
  0
SEQEND
  5
B02
  8
01_BESTAND
 62
     7
  0
POLYLINE
  5
58
  8
01_GR-ANDEREBAUMA
 62
     6
 66
     1
 10
0.0
 20
0.0
 30
0.0
  0
VERTEX
  5
B03
  8
01_GR-ANDEREBAUMA
 62
     6
 10
3523933.3760000002
 20
5400931.3909999998
 30
0.0
  0
VERTEX
  5
B04
  8
01_GR-ANDEREBAUMA
 62
     6
 10
3523995.6409999998
 20
5400812.0480000004
 30
0.0
  0
VERTEX
  5
B05
  8
01_GR-ANDEREBAUMA
 62
     6
 10
3524078.662
 20
5400734.216
 30
0.0
  0
VERTEX
  5
B06
  8
01_GR-ANDEREBAUMA
 62
     6
 10
3524161.6830000002
 20
5400646.0070000002
 30
0.0
  0
VERTEX
  5
B07
  8
01_GR-ANDEREBAUMA
 62
     6
 10
3524172.0610000012
 20
5400568.1739999987
 30
0.0
  0
SEQEND
  5
B08
  8
01_GR-ANDEREBAUMA
 62
     6
  0
POLYLINE
  5
59
  8
01_KR-ANDEREBAUMA
 62
   131
 66
     1
 10
0.0
 20
0.0
 30
0.0
  0
VERTEX
  5
B09
  8
01_KR-ANDEREBAUMA
 62
   131
 10
3524317.347000001
 20
5399784.6639999999
 30
0.0
  0
VERTEX
  5
B0A
  8
01_KR-ANDEREBAUMA
 62
   131
 10
3524395.1800000002
 20
5399634.1889999993
 30
0.0
  0
VERTEX
  5
B0B
  8
01_KR-ANDEREBAUMA
 62
   131
 10
3524493.767
 20
5399530.4129999988
 30
0.0
  0
VERTEX
  5
B0C
  8
01_KR-ANDEREBAUMA
 62
   131
 10
3524581.977
 20
5399421.4479999999
 30
0.0
  0
VERTEX
  5
B0D
  8
01_KR-ANDEREBAUMA
 62
   131
 10
3524628.676
 20
5399328.0489999987
 30
0.0
  0
SEQEND
  5
B0E
  8
01_KR-ANDEREBAUMA
 62
   131
  0
POLYLINE
  5
5A
  8
01_VER-SCHWGEO
 62
    11
 66
     1
 10
0.0
 20
0.0
 30
0.0
  0
VERTEX
  5
B0F
  8
01_VER-SCHWGEO
 62
    11
 10
3523978.3650000002
 20
5402166.5700000003
 30
0.0
  0
VERTEX
  5
B10
  8
01_VER-SCHWGEO
 62
    11
 10
3524006.0189999999
 20
5402358.3129999992
 30
0.0
  0
VERTEX
  5
B11
  8
01_VER-SCHWGEO
 62
    11
 10
3524048.9309999999
 20
5402398.8660000013
 30
0.0
  0
SEQEND
  5
B12
  8
01_VER-SCHWGEO
 62
    11
  0
POLYLINE
  5
5B
  8
01_GR-BEST_KR
 62
    56
 66
     1
 10
0.0
 20
0.0
 30
0.0
  0
VERTEX
  5
B13
  8
01_GR-BEST_KR
 62
    56
 10
3524172.0610000012
 20
5400568.1739999987
 30
0.0
  0
VERTEX
  5
B14
  8
01_GR-BEST_KR
 62
    56
 10
3524130.5499999998
 20
5400474.7760000005
 30
0.0
  0
VERTEX
  5
B15
  8
01_GR-BEST_KR
 62
    56
 10
3524031.963
 20
5400417.699000001
 30
0.0
  0
VERTEX
  5
B16
  8
01_GR-BEST_KR
 62
    56
 10
3523891.8650000002
 20
5400417.699000001
 30
0.0
  0
SEQEND
  5
B17
  8
01_GR-BEST_KR
 62
    56
  0
POLYLINE
  5
5C
  8
01_GR-MICRO
 62
     1
 66
     1
 10
0.0
 20
0.0
 30
0.0
  0
VERTEX
  5
B18
  8
01_GR-MICRO
 62
     1
 10
3524172.0610000012
 20
5400568.1739999987
 30
0.0
  0
VERTEX
  5
B19
  8
01_GR-MICRO
 62
     1
 10
3524234.327
 20
5400651.1950000003
 30
0.0
  0
VERTEX
  5
B1A
  8
01_GR-MICRO
 62
     1
 10
3524239.5150000001
 20
5400754.9720000001
 30
0.0
  0
VERTEX
  5
B1B
  8
01_GR-MICRO
 62
     1
 10
3524312.159
 20
5400749.7829999998
 30
0.0
  0
VERTEX
  5
B1C
  8
01_GR-MICRO
 62
     1
 10
3524421.1239999998
 20
5400791.2929999996
 30
0.0
  0
VERTEX
  5
B1D
  8
01_GR-MICRO
 62
     1
 10
3524545.6549999998
 20
5400858.7479999987
 30
0.0
  0
SEQEND
  5
B1E
  8
01_GR-MICRO
 62
     1
  0
POLYLINE
  5
5D
  8
01_GR-ABWASSERKANAL
 62
    32
 66
     1
 10
0.0
 20
0.0
 30
0.0
  0
VERTEX
  5
B1F
  8
01_GR-ABWASSERKANAL
 62
    32
 10
3523767.3339999998
 20
5401382.8169999998
 30
0.0
  0
VERTEX
  5
B20
  8
01_GR-ABWASSERKANAL
 62
    32
 10
3523845.1660000002
 20
5401211.5870000003
 30
0.0
  0
VERTEX
  5
B21
  8
01_GR-ABWASSERKANAL
 62
    32
 10
3523891.8650000002
 20
5401112.9989999998
 30
0.0
  0
VERTEX
  5
B22
  8
01_GR-ABWASSERKANAL
 62
    32
 10
3523933.3760000002
 20
5401009.2229999993
 30
0.0
  0
VERTEX
  5
B23
  8
01_GR-ABWASSERKANAL
 62
    32
 10
3523933.3760000002
 20
5400931.3909999998
 30
0.0
  0
SEQEND
  5
B24
  8
01_GR-ABWASSERKANAL
 62
    32
  0
POLYLINE
  5
5E
  8
01_KR-ABWASSERKANAL
 62
    36
 66
     1
 10
0.0
 20
0.0
 30
0.0
  0
VERTEX
  5
B25
  8
01_KR-ABWASSERKANAL
 62
    36
 10
3524130.5499999998
 20
5400474.7760000005
 30
0.0
  0
VERTEX
  5
B26
  8
01_KR-ABWASSERKANAL
 62
    36
 10
3524172.0610000012
 20
5400308.7340000002
 30
0.0
  0
VERTEX
  5
B27
  8
01_KR-ABWASSERKANAL
 62
    36
 10
3524208.3829999999
 20
5400132.3150000004
 30
0.0
  0
VERTEX
  5
B28
  8
01_KR-ABWASSERKANAL
 62
    36
 10
3524265.4589999998
 20
5399914.3849999988
 30
0.0
  0
VERTEX
  5
B29
  8
01_KR-ABWASSERKANAL
 62
    36
 10
3524317.347000001
 20
5399784.6639999999
 30
0.0
  0
SEQEND
  5
B2A
  8
01_KR-ABWASSERKANAL
 62
    36
  0
POLYLINE
  5
5F
  8
01_GR-UNVERS
 62
   136
 66
     1
 10
0.0
 20
0.0
 30
0.0
  0
VERTEX
  5
B2B
  8
01_GR-UNVERS
 62
   136
 10
3523715.4460000009
 20
5401839.432
 30
0.0
  0
VERTEX
  5
B2C
  8
01_GR-UNVERS
 62
   136
 10
3523850.355
 20
5401938.0199999996
 30
0.0
  0
VERTEX
  5
B2D
  8
01_GR-UNVERS
 62
   136
 10
3523974.8859999999
 20
5402140.3829999994
 30
0.0
  0
VERTEX
  5
B2E
  8
01_GR-UNVERS
 62
   136
 10
3524006.0189999999
 20
5402358.3129999992
 30
0.0
  0
VERTEX
  5
B2F
  8
01_GR-UNVERS
 62
   136
 10
3524094.2289999998
 20
5402441.3339999998
 30
0.0
  0
VERTEX
  5
B30
  8
01_GR-UNVERS
 62
   136
 10
3524218.7599999998
 20
5402467.2779999999
 30
0.0
  0
SEQEND
  5
B31
  8
01_GR-UNVERS
 62
   136
  0
POLYLINE
  5
60
  8
01_GR-VERS
 62
   176
 66
     1
 10
0.0
 20
0.0
 30
0.0
  0
VERTEX
  5
B32
  8
01_GR-VERS
 62
   176
 10
3523715.4460000009
 20
5401839.432
 30
0.0
  0
VERTEX
  5
B33
  8
01_GR-VERS
 62
   176
 10
3523679.1239999998
 20
5402000.2850000001
 30
0.0
  0
VERTEX
  5
B34
  8
01_GR-VERS
 62
   176
 10
3523611.6699999999
 20
5402187.0820000004
 30
0.0
  0
VERTEX
  5
B35
  8
01_GR-VERS
 62
   176
 10
3523564.9700000011
 20
5402353.1239999998
 30
0.0
  0
SEQEND
  5
B36
  8
01_GR-VERS
 62
   176
  0
POLYLINE
  5
61
  8
01_KR-UNVERS
 62
     3
 66
     1
 10
0.0
 20
0.0
 30
0.0
  0
VERTEX
  5
B37
  8
01_KR-UNVERS
 62
     3
 10
3522511.642
 20
5400718.6500000004
 30
0.0
  0
VERTEX
  5
B38
  8
01_KR-UNVERS
 62
     3
 10
3522345.6010000012
 20
5400895.0690000001
 30
0.0
  0
VERTEX
  5
B39
  8
01_KR-UNVERS
 62
     3
 10
3522034.2719999999
 20
5401014.4120000014
 30
0.0
  0
VERTEX
  5
B3A
  8
01_KR-UNVERS
 62
     3
 10
3521795.5869999998
 20
5401201.2089999989
 30
0.0
  0
VERTEX
  5
B3B
  8
01_KR-UNVERS
 62
     3
 10
3521505.014
 20
5401434.7050000001
 30
0.0
  0
VERTEX
  5
B3C
  8
01_KR-UNVERS
 62
     3
 10
3521473.8810000001
 20
5401600.7470000014
 30
0.0
  0
VERTEX
  5
B3D
  8
01_KR-UNVERS
 62
     3
 10
3521307.8390000002
 20
5401813.4879999999
 30
0.0
  0
SEQEND
  5
B3E
  8
01_KR-UNVERS
 62
     3
  0
POLYLINE
  5
62
  8
01_KR-VERS
 62
     9
 66
     1
 10
0.0
 20
0.0
 30
0.0
  0
VERTEX
  5
B3F
  8
01_KR-VERS
 62
     9
 10
3523891.8650000002
 20
5400417.699000001
 30
0.0
  0
VERTEX
  5
B40
  8
01_KR-VERS
 62
     9
 10
3523720.6349999998
 20
5400448.8320000013
 30
0.0
  0
VERTEX
  5
B41
  8
01_KR-VERS
 62
     9
 10
3523559.7820000001
 20
5400526.6639999999
 30
0.0
  0
VERTEX
  5
B42
  8
01_KR-VERS
 62
     9
 10
3523279.5860000011
 20
5400604.4960000003
 30
0.0
  0
VERTEX
  5
B43
  8
01_KR-VERS
 62
     9
 10
3523108.355
 20
5400635.6289999988
 30
0.0
  0
VERTEX
  5
B44
  8
01_KR-VERS
 62
     9
 10
3522822.9709999999
 20
5400697.8949999986
 30
0.0
  0
VERTEX
  5
B45
  8
01_KR-VERS
 62
     9
 10
3522511.642
 20
5400718.6500000004
 30
0.0
  0
SEQEND
  5
B46
  8
01_KR-VERS
 62
     9
  0
ENDSEC
  0
EOF
